ARTIST: Box Car Racer 
SONG: The End With You
TABBER: Julio Biel, PyNgA, ThE_PiNgA, ThE_LiNKeR or Lostprophet94
Email: [email protected]


INTRO

e|-----|
B|-----|
G|-6---|
D|-x---| Repeat that chord 32 times 
A|-4---|
E|-----|


e|----------------------------------|
B|----------------------------------|
G|----------------------------------|
D|----------------------------------|
A|------------------------------4---|
E|-2-2-2-4-5-5-5-5-5-5-5-5--4-5-----|

Then turn the above into powerchords..:

e|----------------------------------|
B|----------------------------------|
G|------------------------------6---|
D|-4-4-4-6-7-7-7-7-7-7-7-7--6-7-6---|
A|-4-4-4-6-7-7-7-7-7-7-7-7--6-7-4---|
E|-2-2-2-4-5-5-5-5-5-5-5-5--4-5-----|

VERSE (play all notes palm muted)

e|------------------------------------|
B|------------------------------------|
G|------------------------------------|
D|------------------------------------|  Repeat that 8 times
A|-------------------------5-5-5-4----|
E|-5-5-5-5-5-5-5-5---2-2-2------------|


Right before the chorus starts, play this chord again.


e|-----|
B|-----|
G|-6---|
D|-x---|   Only play it 16 times now
A|-4---|
E|-----|

CHORUS

e|-------------------------------------------------------------------|
B|-------------------------------------------------------------------|
G|---------------------------------------------------------7-7-7-7---|
D|-7-7-7-7-7-7-7-7-7-7-7-7-7-7-7-7-6-6-6-6-6-6-6-6-4-4-4-4-7-7-7-7---|  Play that 2 times
A|-7-7-7-7-7-7-7-7-7-7-7-7-7-7-7-7-6-6-6-6-6-6-6-6-4-4-4-4-5-5-5-5---|
E|-5-5-5-5-5-5-5-5-5-5-5-5-5-5-5-5-4-4-4-4-4-4-4-4-2-2-2-2-----------|

Then continue with the                     
                                            
e|----------------------------------|   2 Times   
B|----------------------------------|      
G|------------------------------6---|     
D|-4-4-4-6-7-7-7-7-7-7-7-7--6-7-6---|
A|-4-4-4-6-7-7-7-7-7-7-7-7--6-7-4---|
E|-2-2-2-4-5-5-5-5-5-5-5-5--4-5-----|  


Then the verse again (still palm mute the notes):


e|------------------------------------|
B|------------------------------------|
G|------------------------------------|
D|------------------------------------|  Repeat 8 times again
A|-------------------------5-5-5-4----|
E|-5-5-5-5-5-5-5-5---2-2-2------------|


This chord again:

e|-----|
B|-----|
G|-6---|
D|-x---|   Play it 16 times 
A|-4---|
E|-----|

Then the chorus:

e|-------------------------------------------------------------------|
B|-------------------------------------------------------------------|
G|---------------------------------------------------------7-7-7-7---|
D|-7-7-7-7-7-7-7-7-7-7-7-7-7-7-7-7-6-6-6-6-6-6-6-6-4-4-4-4-7-7-7-7---|  Play that 4 times now since its longer
A|-7-7-7-7-7-7-7-7-7-7-7-7-7-7-7-7-6-6-6-6-6-6-6-6-4-4-4-4-5-5-5-5---|
E|-5-5-5-5-5-5-5-5-5-5-5-5-5-5-5-5-4-4-4-4-4-4-4-4-2-2-2-2-----------|


Then the Interlude/Bridge/Breakdown what ever it is..:


e|------------------------|
B|------------------------|
G|------------------------|
D|------------------------| Play that 6 times then go bak to the chorus again
A|-------------4-4-4-5-2--|
E|-2-2-2-4-5--------------|



e|-------------------------------------------------------------------|
B|-------------------------------------------------------------------|
G|---------------------------------------------------------7-7-7-7---|
D|-7-7-7-7-7-7-7-7-7-7-7-7-7-7-7-7-6-6-6-6-6-6-6-6-4-4-4-4-7-7-7-7---|  Play that 4 times again
A|-7-7-7-7-7-7-7-7-7-7-7-7-7-7-7-7-6-6-6-6-6-6-6-6-4-4-4-4-5-5-5-5---|
E|-5-5-5-5-5-5-5-5-5-5-5-5-5-5-5-5-4-4-4-4-4-4-4-4-2-2-2-2-----------|



Then, play the 

e|----|
B|----|
G|----|
D|-6--|       32 times until end  
A|-x--|
E|-4--|

Does ne1 know how much time it takes for a CD to get in south america? i live in chile & 
the simple plan CD hasnt come out here yet :(


There u go, the CORRECT version of box car racers the end with you.

PS could ne1 tell me what the difference between a breakdown, an interlude or a bridge 
in a song are?
id appreciate it alot since im really confused thx!!



Lyrics:


our days are running thin
our hops will start to fall
i can feel the world collapse around me from within
and the letters keep coming by to let us know when time will die
and please god will you forgive us and give us one more try

if you will then we'll go as fast as we go far
maybe well be forgotten when the world is torn apart

i've been up all night long
counting days that all went wrong
i opened my bedroom window
i wish this pain was gone
there are no useful drugs to escape from feeling numb
i remember an amazing birthday
i remember when i was young

if you will then we'll go as fast as we go far
maybe we'll be forgotten when the world is torn apart
'cause the sun won't be so blinding
and the rains will finally come
the axis will slowly pile up just to prove we're finally done

if you will then we'll go as fast as we go far
maybe we'll be forgotten when the world is torn apart
'cause the sun won't be so blinding
and the rains will finally come
and the axis will slowly pile up just to prove we're finally done


Текст, аккорды и табулатура для песни "End With You", исполняет "Boxcar Racer".
Используемые в песне аккорды можно найти в разделе Как брать аккорды. Аккорды для шестиструнной гитары. Другие песни можно найти на нашем сайте, воспользовавшись алфавитным указателем вверху страницы.


Слушать онлайн The End With You


Box Car RacerThe End With You на Яндекс.Музыке


 
Ошибка в тексте? Выделите ошибку и нажмите Ctrl+Enter