Title: All Systems Go
Artist: Boxcar Racer
Tabbed by: Blake Rakoczi
E-Mail: [email protected]

~ = Let Ring

Intro - Note: Wait for guitar to play its riff by itself.  Then, continue.
G|-------------------------------------------------------------------
D|-------------------------------------------------------------------
A|--------4-4-4------------------------------------------------------ x4
E|-5-5-5---------4-4-4--5-5-5--4-4-4--5-5----------------------------

First Verse - Note: You don't play anything here.

Chorus
G|-------------------------------------------------------------------
D|-------------------------------------------------------------------
A|-3-3-3-3-3-3-3-3--2-2-2-2-2-2-2-2---------------------------------- x2
E|-----------------------------------5-5-5-5-5-5-5-5--1-1-1-1-1-1-1-1

Intro - Note: Wait for guitar to play its riff again. Then, continue.
G|-------------------------------------------------------------------
D|-------------------------------------------------------------------
A|--------4-4-4------------------------------------------------------ x2
E|-5-5-5---------4-4-4--5-5-5--4-4-4--5-5----------------------------

Second Verse - Note: You don't play anything here.

Chorus - Note: Wait for guitar to play its special riff, and then, continue.
G|-------------------------------------------------------------------
D|-------------------------------------------------------------------
A|-3-3-3-3-3-3-3-3--2-2-2-2-2-2-2-2---------------------------------- x4
E|-----------------------------------5-5-5-5-5-5-5-5--1-1-1-1-1-1-1-1

Bridge
G|-------------------------------------------------------------------
D|-------------------------------------------------------------------
A|-------------------------------------------------------------------
E|-------------------------------------------------------------------

Chorus
G|-------------------------------------------------------------------
D|-------------------------------------------------------------------
A|-3-3-3-3-3-3-3-3--2-2-2-2-2-2-2-2---------------------------------- x4
E|-----------------------------------5-5-5-5-5-5-5-5--1-1-1-1-1-1-1-1

Ending - Note: Guitar plays the intro twice, and then you come in with this.
G|-------------------------------------------------------------------
D|-------------------------------------------------------------------
A|--------4-4-4------------------------------------------------------ x1
E|-5-5-5---------4-4-4--5-5-5--4-4-4--5-5----------------------------

G|-------------------------------------------------------------------
D|-------------------------------------------------------------------
A|--------4-4-4------------------------------------------------------ x1
E|-5-5-5---------4-4-4--5-5~~~~~~~~----------------------------------


Текст, аккорды и табулатура для песни "All Systems Go", исполняет "Boxcar Racer".
Используемые в песне аккорды можно найти в разделе Как брать аккорды. Аккорды для шестиструнной гитары. Другие песни можно найти на нашем сайте, воспользовавшись алфавитным указателем вверху страницы.


Слушать онлайн All Systems Go


Box Car RacerAll Systems Go на Яндекс.Музыке


 
Ошибка в тексте? Выделите ошибку и нажмите Ctrl+Enter