Song: On and on (about you)
Artist: Bowling for Soup
Tabbed by: Deadmeat ([email protected])

One of the best songs on the new BFS album...enjoy!


Standard tuning (E A D G B e)



* = play 8 times
pm= palm muted
> = accent
~ = vibrato
 = slide down


-------
|Intro|
-------
  Guitar 1
e|-----------------------3----------------------|------||
B|--35-65335---35-65335----6--------------------|------||
G|-5--------5-5--------5-----553----5-----3-353-|------||
D|-------------------------------542---020------|-5~~~-||
A|----------------------------------------------|------||
E|----------------------------------------------|------||
  Guitar 2                                     3x
e|--------------------------------|-------------|------||
B|--------------------------------|-------------|------||
G|--5-----5-----------------------|#-5-5555555-#|--5---||
D|--5--5--5--5--7--3--7-----5-----|#-5-5555555-#|--5---||
A|--3--5--3--5--7--3--7-----5-----|--3-3333333--|--3---||
E|-----3-----3--5--1--5-----3-----|-->pm.>....--|--*---||

-------
|Verse|
-------
             4x       4x                   4x
e|-----------|--------|----------|--------|----------||
B|-----------|--------|----------|--------|----------||
G|#-5-------#|#-5----#|----------|#-5----#|----------||
D|#-5--3355-#|#-5--3-#|-5-5-5-5--|#-5--3-#|-5-5-5-5--||
A|--3--3355--|--3--3--|-5-5-5-5--|--3--3--|-5-5-5-5--||
E|-----1133--|--*--1--|-3-3-3-3--|--*--1--|-3-3-3-3--||
                   * pm.*.*.*.*.       * pm.*.*.*.*.
--------
|Chorus|
--------

e|--------------------------------||
B|--------------------------------||
G|--5-----5-----------------------||
D|--5--5--5--5--7--3--7--7--5--5--||
A|--3--5--3--5--7--3--7--7--5--5--||
E|--*--3--*--3--5--1--5--5--3--3--||
       *     *  *  *  *  *  *  *
-------
|Verse|
-------
             4x       4x     
e|-----------|--------|----------||
B|-----------|--------|----------||
G|#-5-------#|#-5----#|----------||
D|#-5--3355-#|#-5--3-#|-5-5-5-5--||
A|--3--3355--|--3--3--|-5-5-5-5--||
E|-----1133--|--*--1--|-3-3-3-3--||
                   * pm.*.*.*.*.  
--------
|Chorus|
--------

e|--------------------------------||
B|--------------------------------||
G|--5-----5-----------------------||
D|--5--5--5--5--7--3--7--7--5--5--||
A|--3--5--3--5--7--3--7--7--5--5--||
E|--*--3--*--3--5--1--5--5--3--3--||
       *     *  *  *  *  *  *  *
             4x     
e|-----------||
B|-----------||
G|#-5-------#||
D|#-5--3355-#||
A|--3--3355--||
E|-----1133--||
  
--------
|Bridge|
--------
  Guitar 1
e|-------------------------------|-------------------------------||
B|-5--53565653----35653---3------|-5--53--35--53--35--56--65-----||
G|--5---------54-5-----545-4~---|--5---5---5---5---5---5---5----||
D|---5---------------------------|---5---5---5---5---5---5---5~~-||
A|-------------------------------|-------------------------------||
E|-------------------------------|-------------------------------||
  Guitar 2
e|-----------------------|-----------|--------||
B|-----------------------|-----------|--------||
G|--5-----------5--7-----|--Wish I---|--------||
D|--5--5--7--3--5--7--5--|-could...--|--5--7--||
A|--3--5--7--3--3--5--5--|-----------|--5--7--||
E|--*--3--5--1--*--*--3--|-----------|--3--5--||
       *  *  *        *                 *  *
--------
|Chorus|
--------
                                  2x          4x
e|--------------------------------|-----------|-------||
B|--------------------------------|-----------|-------||
G|#-7-----7----------------------#|#-7-------#|--7----||
D|#-7--7--7--7--9--5--9--9--7--7-#|#-7--5577-#|--7----||
A|--5--7--5--7--9--5--9--9--7--7--|--5--5577--|--5----||
E|--*--5--*--5--7--3--7--7--5--5--|-----3355--|-------||
       *     *  *  *  *  *  *  *


Lyrics:

I'm happy again
To be stuck here again
And you're so happy again
To be stuck here again
Now we can laugh about the good 'ol days
Laugh at dumb jokes that you make
It's great to be here and I'm just elated
To be someone you once hated
And it's all so complicated
Maybe this time you can crawl inside your little world
Makeout with another girl
If it were up to me I'd like to

Buy you flowers every day
Make every day a holiday
Carry on and on and on about you
And the things you do
The things you do

I'm so sorry again
You say you're leavin' me again
Cause you're not happy again
Now we're stuck here again
Now you can scream about the little things
Slap me twice across the face
Man it would be great if I could

Buy you flowers every day
Make every day a holiday
Carry on and on and on about you
And the things you do
The things you do

(Alright)
I'd like to buy you flowers every day
Make every day a holiday
Carry on and on and on about you
And the things you do

Me gustaria comprar de flores cada dia
Hace cada dia una vacacion
Y habla mas y mas y mas de ti
De las cosas que haces

I just said I'd buy you flowers every day
Make every day a holiday
Carry on and on and on about you 
And the things you do
The things you do....do....do....do....
Olй!


Текст, аккорды и табулатура для песни "On And On", исполняет "Bowling For Soup".
Используемые в песне аккорды можно найти в разделе Как брать аккорды. Аккорды для шестиструнной гитары. Другие песни можно найти на нашем сайте, воспользовавшись алфавитным указателем вверху страницы.


Слушать онлайн On And On (About Your)


Bowling For SoupOn And On (About Your) на Яндекс.Музыке


 
Ошибка в тексте? Выделите ошибку и нажмите Ctrl+Enter