ziggy stardust

intro

--3-----2--3--2--3--2--------------------------------------------------|
--3-----3--3--3--3--3--3--------3-----3--------3-----3--------3-----3--|
--0-----2-----------2--2--------0--0--0--------0--0--0--------0-----0--|
--0-----0-----------0--0-----2-----2--2-----0-----2--2-----0-----0-----|
--x--------------------------3--------------2--------------0-----0-----|
--3--------------------------------------------------------------------|

verses

riff 1
 C         D            G
--------------------------|
--------------------------|
--------------------------|
--------------------------|
---3-2-3-4-5-5s7-5--2-0---|
------------------------3-|

G                    Bm                          C     (w/riff 1)       D
Ziggy played guitar, jamming good with Weird and Gilly The spiders from Mars
                  G                    Em
He played it left hand But made it too far
           A                          C/G
Became the special man, then we were Ziggy's band


Ziggy really sang, screwed up eyes and screwed down hairdo
Like some cat from Japan, he could lick 'em by smiling
He could leave 'em to hang
Came on so loaded man, well hung and snow white tan.

chorus

  Am            G               F             G
--5-5-5-5-5-----3-3-3-3-3-------1-1-1-1-1-1-1-3---|
--5-5-5-5-5-----3-3-3-3-3-------1-1-1-1-1-1-1-3---|
--5-5-5-5-5-----4-4-4-4-4-------2-2-2-2-2-2-2-4---|
--7-7-7-7-7-----5-5-5-5-5-------3-3-3-3-3-3-3-5---|
--7-7-7-7-7-----5-5-5-5-5-------3-3-3-3-3-3-3-5---|
--5-5-5-5-5-----3-3-3-3-3-------1-0-1-0-1-0-1-3---|

So where were the spiders while the fly tried to break our balls
Just the beer light to guide us,
      D/A                                   E/B
So we bitched about his fans and should we crush his sweet hands?

Ziggy played for time, jiving us that we were voodoo
The kids were just crass, he was the nazz
With God given ass
He took it all too far but boy could he play guitar

Making love with his ego Ziggy sucked up into his mind
Like a leper messiah
When the kids had killed the man I had to break up the band.

Oh yeah
Ooooooo
C            G
Ziggy played guitaarrrrrr


Текст, аккорды и табулатура для песни "Ziggy Stardust", исполняет "Bowie David".
Используемые в песне аккорды можно найти в разделе Как брать аккорды. Аккорды для шестиструнной гитары. Другие песни можно найти на нашем сайте, воспользовавшись алфавитным указателем вверху страницы.


 
Ошибка в тексте? Выделите ошибку и нажмите Ctrl+Enter