INTRO x4
|--------|---------------------|
|--------|.---5---5--5-----4--.|
|--------|.--------------5----.|
|--------|---------------------|
 
VERSE [1&2]
x3 x3
|---------------------|----------------|---------------------|
|.---5---5--5-----4--.|---5-----4------|.--2----2--2------0-.|
|.--------------5----.|----------------|.--------------2----.|
|---------------------|----------------|---------------------|
x3
|----------------|---------------------|
|---2-----0------|.-------------------.|
|----------------|.--3----3--3------2-.|
|----------------|---------------3-----|

|--------------------|-----------------------|----------4---4--3--|
|-------------2---4--|--5--4---0---5--------|------4-------------|
|-3----3--3----------|------------------5--3-|--2-----------------|
|--------------------|-----------------------|--------------------|
[1. [2.
|-2----2--2----5--6--|--7----7---7--4-------|------7---7---------|
|--------------------|------------------2--4-|--7-----------5---6-|
|--------------------|-----------------------|--------------------|
|--------------------|-----------------------|--------------------|

CHORUS [1]
|------------------|-----------------|----------------|----------------|
|-7----7-7------5--|-7---7--7--------|----------------|----------------|
|------------7-----|-----------7-5---|-7----7--7----5-|-7---7--7-6-7-5-|
|------------------|-----------------|------------7---|----------------|

|-------------------|----------------|----------------|----------------|
|-3---3--3---3-2----|----------------|----------------|----------------|
|-------------------|--3---3--3--3-4-|-5---5--5-----3-|-5---5-5---5--4-|
|-------------------|----------------|------------5---|----------------|

|-------------------|-----------------|--------------|----------------|
|-------------------|-------------3-4-|-5---5--5-----|----------------|
|-3---3--3----3-4---|-5---5---5-5-----|-----------5-4|-3---3--3-----2-|
|-------------------|-----------------|--------------|------------3---|

|-------------------|--------------------|-----------|
|-----------1---3---|--5-----5--5--------|-----------|
|-3-----3-----------|---------------3--4-|-5~~~~~~~~~|
|-------------------|--------------------|-----------|

SOLO x3 x3
|-------------------|----------|------------------|--------|
|.-5----5--5----4--.|--5---4---|.-2----2--2----0-.|-2---0--|
|.------------5----.|----------|.------------2---.|--------|
|-------------------|----------|------------------|--------|
x3
|-------------------|---------------|
|.-----------------.|-----------2-4-|
|.-3----3---3----2-.|-3--3---3------|
|--------------3----|---------------|

|-----------------|-------4---4--3-|2---2--2---5--6-|-7----7--7-------|
|5------5---------|----4-----------|----------------|------------5--6-|
|----5-------5--3-|2---------------|----------------|-----------------|
|-----------------|----------------|----------------|-----------------|

VERSE [3] x3 x3
|---------------------|----------------|---------------------|
|.---7---7--7-----6--.|---7-----6------|.--4----4--4------2-.|
|.--------------7----.|----------------|.--------------4----.|
|---------------------|----------------|---------------------|
x3
|----------------|---------------------|--------------------|
|---4-----2----4-|.-------------------.|-------------4---6--|
|----------------|.--5----5--5------4-.|-5----5--5----------|
|----------------|---------------5-----|--------------------|

|-----------------------|----------6-----6--5--|-4----4--4----7--8--|
|--7---------7----------|------6---------------|--------------------|
|---------7-------7-----|--4-------------------|--------------------|
|-----------------------|----------------------|--------------------|

|--9----9---9------------|
|------------------9--4-|
|------------------------|
|------------------------|

CHORUS [2]
|-------------------|---------------|-----------------|---------------|
|-------------------|-----------2-3-|-4---4--4------2-|-4---4--4-3-4-3|
|-2--2--2-------0---|-2---2--2------|------------4----|---------------|
|-----------2-------|---------------|-----------------|---------------|

|-------------------|-----------------|-----------------|--------------|
|-5---5--5----------|-----------5---4-|-2---2--2------1-|-2--2--2------|
|------------4---5--|-5---5---5-------|------------2----|----------4--5|
|-------------------|-----------------|-----------------|--------------|

|-------------------|-----------------|--------------------|-----------|
|-------------------|---------------6-|-7----7---7---------|-----------|
|-5--5--5-------5---|-7---7--7---7----|--------------7---6-|-5--5--5-5-|
|------------5------|-----------------|--------------------|-----------|

|-------------------|-----------------|-----------|
|-------------5-----|-7-----7---------|-----------|
|-5-----8-----------|-----------5---6-|-7~~~~~~~~~|
|-------------------|-----------------|-----------|

OUTRO = repeat twice to fade
x3 x3
|------------------|--------|--------------------|---------|
|.-7---7--7----6--.|--7---6-|.-4----4--4------2-.|--4---2--|
|.----------7-----.|--------|.-------------4----.|---------|
|------------------|--------|--------------------|---------|
x3
|--------------------|------------------|
|.------------------.|-------------4--6-|
|.-5---5--5-----4---.|-5---5--5---------|
|------------5-------|------------------|

|-------------------|--------6---6---5--|-4----4-4---7-8-|
|-7------7----------|-----6-------------|----------------|
|-----7------7--5---|-4-----------------|----------------|
|-------------------|-------------------|----------------|

|-9----9---9-----------|
|--------------9-----|
|----------------------|
|----------------------|

. Intro

. Verse 1
. Verse 2
. Chorus 1
. Solo
. Verse 3
. Chorus 2
. Outro x2


Текст, аккорды и табулатура для песни "Soul Love", исполняет "Bowie David".
Используемые в песне аккорды можно найти в разделе Как брать аккорды. Аккорды для шестиструнной гитары. Другие песни можно найти на нашем сайте, воспользовавшись алфавитным указателем вверху страницы.


 
Ошибка в тексте? Выделите ошибку и нажмите Ctrl+Enter