Album: Ни «Бэ», ни «Мэ» или в мире животных

Tuning D

Intro
Riff A1
Gtr 1 (clean electric)                        x10
|--0----------1--x-3-3--x-----------|
||*-----1--------1--------1--x-3-3--x----------*|
||--------2--------2------2--x-4-4--x-----------|
||----------2--------2----3--x-5-5--x-----------|
||*--0--------------------3--x-5-5--x----------*|
--1--x------------------|


Gtr 2 lead (smooth dist)            full    full
-------------/-------/-------------------------------------|
------------/--21---/--------------------------------------|
||--9-12—14~---17p1614--16-17~----19-------19----1412--1210--109--7-7-7h10p9~--|
-----------------------------------------------------------|
-----------------------------------------------------------|
-----------------------------------------------------------|


Gtr 2 lead                          full                                   full
-------------------------/--------------------------------------/----||
---------------------18-20r------------------------------------/-----||
-15--17--19-19/21~----------21--19--21-19h21~-----------------/------||
|----12/15---15--17--19-19/21~------------------------------5h7-5-7-10-9-10r-----||
|----12/15-----------------------------------------------------------------------||
---------------------------------------------------------------------||


Riff A2
Gtr 1 (clean electric)         
             ...Забрели с тобой шутя.....       ...мы за стены дождя...        
0----------------1-----------1------1--------------------0------------|
|-----1-------1--------1-------1-----------3------3---2------1---------1----------|
|-------2-------2--------2-------2-----------2------2-----------2--------2--------|
|---------2-------2--------2-------2---0--------------------------2--------2------|
|--3-----------------0------------------------------------3-----------------------|
----------------------------------------------------------------------|

Riff A1 x2
Riff A2 x1, потом

Riff A3
Gtr 1 (clean electric)         
                 ...В нашем призрачном      замке...
-1----------1------1-----------------1------------||
|-------1------1----------3------3---2-----1-------1----------||
|---------2------2----------2------2---------2-------2--------||
2------2---0------------------------2-------2-----||
|----0----------------------------------3---------------------||
--------------------------------------------------||
Chorus
Gtr 1 and Gtr 2
  			...Мы вошли, в этот замок из дождя...	    ...Только двое – ты и я...
------------------------------------------------------------------|
------------------------------------------------------------------|
------------------------------------------------------------------|
------------------------------------------------------------------|
||---7-7-7-7-7-7-7-7--7-----7-----7----3-----3-----3----5-----5-----5----2-----2-----2----|
||---5-5-5-5-5-5-5-5--5-5-5-5-5-5-5-5--1-1-1-1-1-1-1-1--3-3-3-3-3-3-3-3--0-0-0-0-0-0-0-0--|
p.m. . . . . . . . .    . .   . .   .    . .   . .   .    . .   . .   .    . .   . .   .


Gtr 1 and Gtr 2
		     ...И так долго были  ________вместе___________    ...Мы спаслись...   
------------------------------------------------------------------|
------------------------------------------------------------------|
------------------------------------------------------------------|
---------7-----7-----7--------------------------------------------|
|---3-----3-----3----5-5-5-5-5-5-5-5---7-----7-----7----7-----7-----7---------|
|---1-1-1-1-1-1-1-1--------------------5-5-5-5-5-5-5-5--5-5-5-5-5-5-5-5-------|
p.m.  . .   . .   .    . .   . .   .     . .   . .   .    . .   . .   .


Gtr 1 and Gtr 2
	        ...В этом замке из дождя...       ...Только двое – ты и я...
---------------------------------------------------------------|
---------------------------------------------------------------|
---------------------------------------------------------------|
---------------------------------------------------------------|
|----7-----7-(7)--7-3-----3-----3----5-----5-----5----2-----2-----2--------|
|----5-5-5-5—(5)--5-1-1-1-1-1-1-1-1--3-3-3-3-3-3-3-3--0-0-0-0-0-0-0-0------|
p.m.   . .            . .   . .   .    . .   . .   .    . .   . .   .


Gtr 1 and Gtr 2
            ...В самом одиноком ____________месте____________     ты и я....
------------------------------------------------------------||
------------------------------------------------------------||
------------------------------------------------------------||
---------7-----7-----7--------------------------------------||
|---3-----3-----3----5-5-5-5-5-5-5-5--7-----7-----7----7-----7---7------||
|---1-1-1-1-1-1-1-1-------------------5-5-5-5-5-5-5-5--5-5-5-5-5-5-5----||
p.m.  . .   . .   .    . .   . .   .    . .   . .   .    . .   .   .


Verse 2
Gtr 2 lead                                              full
---------------------------------/-----------------------|
-----------------------------17-17r---17~---17-20-22~----|
||-----12h14-12-12/14~------12p14-12--14--17—19/21~------------------------------|
---------------------------------------------------------|
---------------------------------------------------------|
---------------------------------------------------------|
r – release bend
Gtr 1 Riff A1 x4

Gtr 2             *
|---17--19-20-19-19----1712-12h15p12-(12)~----||
|---17------------------------------------------||
------------------------------------||
------------------------------------||
------------------------------------||
------------------------------------||
* - опустить рычаг, взять ноту, отпустить рычаг
Riff A1 x2
Riff A2 x1
Riff A1 x2
Riff A2 x1
Riff A3 x1
Chorus  x1


Solo rhythm
Gtr 1
----------------------------------------------------------------------|
----------------------------------------------------------------------|
----------------------------------------------------------------------|
----------------------------------------------------------------------|
||--7-7-7---3-3--5-5---7-7-7-----------3-----------5---7-7-7/---3-3---5-5---3-3(3)—-2-2(2)-|
||--5-5-5---1-1--3-3---5-5-5---1-1-1-1-1---3-3-3-3-3---5-5-5/---1-1---3-3---1-1(1)—-0-0(0)-|
p.m.. .                          . . . .     . . . .  


Gtr 1
---------------------------------------------------------------------------------||
---------------------------------------------------------------------------------||
---------------------------------------------------------------------------------||
---------------------------------------------------------------------------------||
|-7-7-7---3-3--5-5---7-7-7---3-3-----------5---7-7-7---3-3---5-5---3-3(3)—-2-2-2-2-2-2-2-2||
|-5-5-5---1-1--3-3---5-5-5---1-1---3-3-3-3-3---5-5-5---1-1---3-3---1-1(1)—-0-0-0-0-0-0-0-0||
p.m.                                 . . . .                                  . . . . . . . . 


Solo                                                          
Gtr 2 lead                                                     full..   full
----------------------------------------/--15--/-----------|
---------------------------------------15-----15-(15)~~----|
||---14~~~--14-16-17-16-14---149--(9)~----14-16-17-16-14--------------------------|
---17------------------------------17----------------------|
-----------------------------------------------------------|
-----------------------------------------------------------|


Gtr 2                                1/2 bend        full
--------------------------/---------------/--------------------------|
|---17h18p17h18p17h18p17----19h21h22-22r--18-17~~----/---------------------------|
----------------------------------------19--19-17-16-17~-------------|
---------------------------------------------------------------------|
---------------------------------------------------------------------|
---------------------------------------------------------------------|


Gtr 2      full                                                                
/------------23-(23)---/-------------------20-----------------20-------|
|--22~~~~--22r--22-20-22-----------/---22-22-22-22--22----22-22—-22-22-22----22-22-|
-----------------------/-----------------------------------------------|
-----------------------/-----------------------------------------------|
-----------------------------------------------------------------------|
-----------------------------------------------------------------------|


Gtr 2  full
|-------/-----------------------------------------------||
|---22-22r--22-21-22-(22)~--------22-(22)~~~~-----------||
-------------------21-----------------------||
--------------------------------------------||
--------------------------------------------||
--------------------------------------------||

Chorus  x1


Gtr 2  lead                    ...Ты и я...                                   ...ТЫ И Я...
Interlude  1/2  full   1/2                               1/2
||--------/----/-------/---------------------------------/----------------------------|
||-------17r—17r--17--16r--16---------------------------/-----------------------------|
------16~-------------14-16-17-17r--17-16-1614-1412-12-10---|
--------------------------------------------------------------|
--------------------------------------------------------------|
--------------------------------------------------------------|


Gtr 2                          ...Ты и я....                           full
------------------------------------------------------------/-----------||
-----------------------------------------------------------/------------||
|--------12----12-14~----19-17--19-21-19-19p18p16—15p14p12-12p11p10---5r---5--------||
|----/14----14-----------------------------------------------------------7---7-7----||
------------------------------------------------------------------------||
------------------------------------------------------------------------||
Gtr 1 Riff A1 x4


Ending
Gtr 1 and Gtr 2
				...Ты и я....             ...Ты и я....
--------------------------------------------------------|
--------------------------------------------------------|
--------------------------------------------------------|
--------------------------------------------------------|
||--7-7-7---3-3--5-5---7-7-7/-----------3-----------5---7-7-7/---3-3---5-5---|
||--5-5-5---1-1--3-3---5-5-5/---1-1-1-1-1---3-3-3-3-3---5-5-5/---1-1---3-3---|
p.m.. .                          . . . .     . . . .  


Gtr 1 and Gtr 2
     ...Ты и я....   ...Ты и я....
-----------------------||
-----------------------||
-----------------------||
-----------------------||
|----3-3(3)—-2-2(2)----7-7--------||
|----1-1(1)—-0-0(0)----5-5--------||
	
	
	        
Комментарий автора: Благодарю за внимание... если у Вас имеются какие-либо комментарии или поправки... пожалуйста, шлите. спасибо, что любите Бони НЕМ!

Текст, аккорды и табулатура для песни "Замок из дождя", исполняет "Бони Нем".
Используемые в песне аккорды можно найти в разделе Как брать аккорды. Аккорды для шестиструнной гитары. Другие песни можно найти на нашем сайте, воспользовавшись алфавитным указателем вверху страницы.


 
Ошибка в тексте? Выделите ошибку и нажмите Ctrl+Enter