#----------------------------------PLEASE NOTE---------------------------------#
#This file is the author's own work and represents their interpretation of the #
#song. You may only use this file for private study, scholarship, or research. #
#------------------------------------------------------------------------------#
Transcribed by: Radtchenko Konstantin ([email protected])

Band: Boney ‘NEM
Song: We are the world, we are the children

Tuning D


Intro
Gtr 1
||------------------------------------------------------------------------------------------|
||------------------------------------------------------------------------------------------|
||------------------------------------------------------------------------------------------|
||---5-(5)----------------5-(5)-----------------------------5-(5)---------------5--2-(2)---|
||---3—(3)--3-(3)—-5-(5)--3-(3)---------------3-(3)--5-(5)--3-(3)---------------3--0-(0)---|
||----------1-(1)--3-(3)----------------------1-(1)--3—(3)----------------------------------|
|                                                                                           |
|                                                                                           |
Gtr 2                                                                                       | 
||------------------------------------------------------------------------------------------|
||------------------------------------------------------------------------------------------|
||------------------------------------------------------------------------------------------|
||---5-(5)----------------5-(5)-------5-(5)-----------------5-(5)-------5—(5)---5--2—(2)---|
||---3—(3)--3-(3)—-5-(5)--3-(3)-3-3-3-3-(3)---3-(3)--5-(5)--3-(3)-3-3-3-3—(3)---3--0-(0)---|
||----------1-(1)--3-(3)----------------------1—(1)--3-(3)----------------------------------|
p.m.                            . . .                             . . .

 
Gtr 1 and Gtr 2
|---------------------------------------------------------------------------------||
|---------------------------------------------------------------------------------||
|---------------------------------------------------------------------------------||
|---------------------------------------------------------5-----5-----4/5-5-------||
|--2-(2)---2-----2-(2)--3-----3-----3----5-----5-----5----3-3-3-3-3-3-2/3-3-------||
|--0—(0)---0-0-0-0—(0)--1-1-1-1-1-1-1-1--3-3-3-3-3-3-3-3--------------------------||
p.m.         . .          . .   . .   .    . .   . .   .    . .   . .


Verse

Gtr 1 and Gtr 2
||---------------------------------------------------------------------------------|
||---------------------------------------------------------------------------------|
||---------------------------------------------------------------------------------|
||--------------------------------------5-----5----------5-----5-------------------|
||----3-----3-----3----5-----5-----5----3-3-3-3-3-3-3-3-—3-3-3-3-3-3-3-3-----------|
||----1-1-1-1-1-1-1-1--3-3-3-3-3-3-3-3---------------------------------------------|
p.m.    . .   . .   .    . .   . .   .    . .   . . . .    . .   . . . .


Gtr 1 and Gtr 2
|---------------------------------------------------------------------------------||
|---------------------------------------------------------------------------------||
|---------------------------------------------------------------------------------||
|--------------------------------------5-----5----------5-------------------------||
|----3-----3-----3----5-----5-----5----3-3-3-3-3-3-3-3-—3-3-3-000500030-----------||
|----1-1-1-1-1-1-1-1--3-3-3-3-3-3-3-3---------------------------------------------||
p.m.   . .   . .   .    . .   . .   .    . .   . . . .    . . .........  

 
Chorus

Gtr 1 and Gtr 2
||------------------------------------------------------|
||------------------------------------------------------|
||------------------------------------------------------|
||------------------------------------------------------|
||-----7—(7)--7-----7-7-(7)-----5—(5)--5-----5-5--------|
||-----5-(5)--5-5-5-5-5-(5)-----3-(3)--3-3-3-3-3--------|
p.m.            . .                      . .


Gtr 1 and Gtr 2
|----------------------------------------------------------------||
|----------------------------------------------------------------||
|----------------------------------------------------------------||
|----------------------------------------5-----5-----4/5-5-------||
|------3-----3-----3----5-----5-----5----3-3-3-3-3-3-2/3-3-------||
|------1-1-1-1-1-1-1-1--3-3-3-3-3-3-3-3--------------------------||
p.m.     . .   . .   .    . .   . .   .    . .   . .


Текст, аккорды и табулатура для песни "We Are The World We Are The Children", исполняет "Boney Nem".
Используемые в песне аккорды можно найти в разделе Как брать аккорды. Аккорды для шестиструнной гитары. Другие песни можно найти на нашем сайте, воспользовавшись алфавитным указателем вверху страницы.


 
Ошибка в тексте? Выделите ошибку и нажмите Ctrl+Enter