#----------------------------------PLEASE NOTE---------------------------------#
#This file is the author's own work and represents their interpretation of the #
#song. You may only use this file for private study, scholarship, or research. #
#------------------------------------------------------------------------------#
Transcribed by: Radtchenko Konstantin ([email protected])

Band: Boney ‘NEM
Song: Symphony

Tuning D
 

Intro

Gtr 1
||-------------------------------------------------------------------------|
||-------------------------------------------------------------------------|
||-------------------------------------------------------------------------|
||------------------------4—(4)-------------------4—(4)--------------------|
||-----/---3-(3)---------2-(2)---------3—(3)-----2-(2)--------------------|
||-----/---1-(1)-----------------------1-(1)------------------------------|
|                                                                          |
Gtr 2 (wah-wah + tremolo bar vibrato)                                      |
||-------------------------------------------------------------------------|
||------------------------A.H.-------------------A.H.----------------------|
||----------3~~~~~~-------4fb~~~~~~~----3~~~~~~~--4~~~~~~~~(4)//---------|
||-------------------------------------------------------------------------|
||-------------------------------------------------------------------------|
||-------------------------------------------------------------------------|
 
Gtr 1
|-------------------------------------------------------------------------|
|-------------------------------------------------------------------------|
|-------------------------------------------------------------------------|
|-------------------------------------------------------------------------|
|-------------------------------------------------------------------------|
|-------------------------------------------------------------------------|
|                                                                         |
Gtr 2 (wah-wah)                        ..............                     |
|------------------------------------/---*----*---*--*-------------------|
|-------11fbr-(11)p9--------------12fb---12--12—12--—12r------------------|
|-------(slow bend)----10~~~----------------------------------------------|
|-------------------------------------------------------------------------|
|-------------------------------------------------------------------------|
|-------------------------------------------------------------------------|

* - A.H.
 

Riff A

Gtr 1 and Gtr 2
||------------|----------------------------------------------||
||------------|----------------------------------------------||
||------------|----------------------------------------------||
||------------|-----3-(3)/43----3-(3)/43-------------------||
||-----3-(3)--|-----1-(1)/21----1-(1)/21-------------------||
||-----1-(1)--|----------------------------------------------||


Riff B

Gtr 1
||----------------------------------------------------------------------------------------|
||----------------------------------------------------------------------------------------|
||----------------------------------------------------------------------------------------|
||------3---------------3-----------------------------------------------------------------|
||------1-------3-------1---------3-----------3-------------------------------------------|
||--------------1-----------------1-----------1-------------------------------------------|
|                                                                                         |
|                                                                                         |
Gtr 2 (with wah-wah)                                                                      |
||--------------+--------------+----------------+-------------+---------------------------|
||----7-7-7~--6-6~---4-4-4~--2-2~-----4-4-4~--2-2~--1-1-1~---------8fb~--7-5-7—9fb-8~-----|
||----------------------------------------------------------3-3~--------------------------|
||----------------------------------------------------------------------------------------|
||----------------------------------------------------------------------------------------|
||----------------------------------------------------------------------------------------|

«+» -  press pedal

Chorus

Gtr 1  Sym _ pho _ ny      Sym _ pho _ ny
||--------------------------------------------------------------|
||--------------------------------------------------------------|
||--------------------------------------------------------------|
||------3----3----3-(3)-----3----3----3—(3)--3----3-------------|
||------1----1----1—(1)-----1----1----1-(1)--1----1-------------|
||--------------------------------------------------------------|
|                                                               |
|                                                               |
Gtr 2 (wah-wah)                                                 |                  
||--------------------------------------------------------------|
||--------------------------------------------------------------|
||--------------------------------------------------------------|
||--------------------------------------------------------------|
||----1-1-1-1-1-1-1-1-1-1-1-1-1-1-1-1-1-1-1-1-1-1-1-1-----------|
||--------------------------------------------------------------|

 
both Gtrs  Sym _ pho _ ny      Sym _ pho _ ny

|-------------------------------------------------------------------------||
|-------------------------------------------------------------------------||
|-------------------------------------------------------------------------||
|----------6---------6------------6---6---6----8-(8)---10-(10)---6--8-----||
|----------4-4-4-4-4-4-4--4-4-4-4-4-4-4-4-4----6-(6)----8-(8)----4--6-----||
|-------------------------------------------------------------------------||

 
End.


Текст, аккорды и табулатура для песни "Symphony", исполняет "Boney Nem".
Используемые в песне аккорды можно найти в разделе Как брать аккорды. Аккорды для шестиструнной гитары. Другие песни можно найти на нашем сайте, воспользовавшись алфавитным указателем вверху страницы.


 
Ошибка в тексте? Выделите ошибку и нажмите Ctrl+Enter