Tuning D

Эта таблатура живет на сайте http://nemtabs.boom.ru/

Intro
Gtr 1 and Gtr 2 (clean electric)                      x4
||----0--0--x---0--0--0--x---2--2--x---4--4--4--x-----||
||*---1--1--x---1--1--1--x---3--3--x---5--5--5--x----*||
||----2--2--x---0--0--0--x---2--2--x---4--4--4--x-----||
||----2--2--x---2--2--2--x---0--0--x------------x-----||
||*---0--0--x---3--3--3--x---------------------------*||
------------------------------||
-  +  -   +  -  +  -   +  -  +   +  +  +  +
«-» - бьем вниз, «+» - соответственно, вверх...


Verse
Gtr 1 and Gtr 2
-----------------------------------------------|
-----------------------------------------------|
-----------------------------------------------|
---------------------------7-----7-----7-------|
|------2-----2-----2-------------------5-5-5-5-5-5-5-5-----|
||---000000000000--0-0-0-0-0-0-0-0---000000000000----------------------|
p.m. ............    . .   . .   .   ............    . .   . .   .


Gtr 1 and Gtr 2 
---------------------------------------------------------------|
---------------------------------------------------------------|
---------------------------------------------------------------|
---------5-----5-----3-----------------------------------------|
|---5-----5-----5----3-3-3-3-3-3-3-3----------------7-----7-----7----------|
|---3-3-3-3-3-3-3-3-------------------000000000000--5-5-5-5-5-5-5-5--------|
p.m.  . .   . .   .    . .   . .   .  ............    . .   . .   .


Gtr 1 and Gtr 2 
--------------------------------------|
--------------------------------------|
--------------------------------------|
---------5-----5-----3----------------|
|---5-----5-----5----3-3-3-3-3-3-3-3--------------|
|---3-3-3-3-3-3-3-3-------------------000000000000|
p.m.  . .   . .   .    . .   . .   .  ............


--------------------------------|
--------------------------------|
--------------------------------|
|--2--5--7----2--5--8--7---2—-5--7----5—-2--|
|--0--3--5----0—-3--6--5---0--3--5----3--0--|
--------------------------------|


Gtr 1 and Gtr 2
-----------------------------------------------------------|
-----------------------------------------------------------|
-----------------------------------------------------------|
---------------------------------------7-----7-----7-------|
-------2-----2-----2-------------------5-5-5-5-5-5-5-5-----|
|----000000000000--0-0-0-0-0-0-0-0---000000000000----------------------|
p.m. ............    . .   . .   .   ............    . .   . .   .


Gtr 1 and Gtr 2                                                            x2 
---------------------------------------------------------------||
|*------------------------------------------------------------------------*||
---------------------------------------------------------------||
---------5-----5-----3-----------------------------------------||
|*--5-----5-----5----3-3-3-3-3-3-3-3----------------7-----7-----7---------*||
|---3-3-3-3-3-3-3-3-------------------000000000000--5-5-5-5-5-5-5-5--------||
p.m.  . .   . .   .    . .   . .   .  ............    . .   . .   .


Solo rhythm
Gtr 1
------------------------------------||
------------------------------------||
------------------------------------||
|------5--5--5--5---7--7--7--7---9--9--9--9-----||
||----7--7--7--7---3--3--3--3---5--5--5--5---7--7--7--7-----||
||----5--5--5--5--------------------------------------------||


что-то вроде Соло                                        
Gtr 2                       x3                           
---------------------||
||*-------------------------*----------------||
---------------------||
||------7-5-7--10-9-7-5------|---12fb—12fb—12fb—12fb-----||
||*-------------------------*----------------||
---------------------||
p.m.    . . .       . .
fb – full bend


Outro
Gtr 1 and Gtr 2
____Плачет девочка в автомате ___перепачканное лицо __ Вся в слезах и губной памаде!
-----------------------------------------------------------------||
-----------------------------------------------------------------||
-----------------------------------------------------------------||
-----------------------------------------------------------------||
-------55555555-----------3333333------------------7--5—-7/----||
||---000000000000000000000000-----------77777777----------00000000---------5—-3—-5/----||
p.m. ........................  ........ ........  ....... ........

Благодарю за внимание... если у Вас имеются какие-либо комментарии или поправки... 
пожалуйста, шлите.
Спасибо, что любите Бони НЕМ!




Текст, аккорды и табулатура для песни "Плачет девочка c автоматом", исполняет "Boney Nem".
Используемые в песне аккорды можно найти в разделе Как брать аккорды. Аккорды для шестиструнной гитары. Другие песни можно найти на нашем сайте, воспользовавшись алфавитным указателем вверху страницы.


 
Ошибка в тексте? Выделите ошибку и нажмите Ctrl+Enter