Интервалы между цифрами приблизительно 
соответствуют длительности нот.

clean
2-------------9----------------|
3|----8-10-8-10-----88888-----8----88888-8-|
p.m.  *  * *  *     *****     *    ***** *

dist
4|----3-5-3-5---------8---5------------|
5|----3-5-3-5---------8---5------------|
6|----1-3-1-3-0-0-0-0-6---3---0-0-0-0-|
p.m.          * * * *         * * * *

3--------------------------5-----5-----5---5-----5-----5---|
4|----5-----5-----5---5-----5-----5----5-----5-----5---5-----5-----5---|
5|----5-----5-----5---5-----5-----5----3-3-3-3-3-3-3-3-3-3-3-3-3-3-3-3-|
6|----3-3-3-3-3-3-3-3-3-3-3-3-3-3-3-3----------------------------------|
p.m.    * *     * *    *    и т.д. ->
    Яблоки на снегу   розовые на белом

3---------3-----3-----3---|
4|----3-----3-----3---3-----3-----3---|
5|----3-----3-----3---1-1-1-1-1-1-1-1-|
6|----1-1-1-1-1-1-1-1-----------------|
      Что же нам с ними делать...

3|----5------5-----5-------------------|
4|----5------5-----5--7-----7-----7----|
5|----3-3-3-3-3-3-3-3-7-----7-----7----|
6---------5-5-5-5-5-5-5-5--|
     С яблоками на снегу!


5|----3-5-6-5-3-5-6-5-3-5-6-5-3-5-6-5--|
p.m.  * * * * * * * * * * * * * * * *  
   Яяяяяяяяяяяяблоки на снегу

3-------------------------|
4|----5-----5-----5---5-----5-----5---|
5|----5-----5-----5---5-----5-----5---|
6|----3-3-3-3-3-3-3-3-3-3-3-3-3-3-3-3-|
      Яблоки на снегу

3|----5-------------------------------|
4|----5-------7-------5-----5-----5---|
5|----3-------5-------5-----5-----5---|
6-5-------3-3-3-3-3-3-3-3-|
     Что же нам с ними делать

3|----5-------------------------------|
4|----5-------7-------5-----5-----5---|
5|----3-------5-------5-----5-----5---|
6-5-------3-3-3-3-3-3-3-3-|
    С яблоками на снегу

4|----8---5-----------3-5-3-5---------|
5|----8---5-----------3-5-3-5---------|
6|----6---3---0-0-0-0-1-3-1-3-0-0-0-0-|
p.m.         * * * *         * * * *

3-------------------------5-----5-----5---5-----5-----5---|
4|----5-----5-----5---5-----5-----5---5-----5-----5---5-----5-----5---|
5|----5-----5-----5---5-----5-----5---3-3-3-3-3-3-3-3-3-3-3-3-3-3-3-3-|
6|----3-3-3-3-3-3-3-3-3-3-3-3-3-3-3-3---------------------------------|
    Яблоки на снегу с  розовой нежной кожей.............



solo
2------------------------------------8------|
             /full                       /full
3|---8-8-8-8/     ---8-------8-8-8-10---/     -------10-|
4-----------8-------------------------------|



1-----------------------------15-|
                                     /1/2   
2----9-8---------8-8-8-8/    -------|
3|---10-////--------8-------------------------|


Текст, аккорды и табулатура для песни "Яблоки на снегу", исполняет "Boney Nem".
Используемые в песне аккорды можно найти в разделе Как брать аккорды. Аккорды для шестиструнной гитары. Другие песни можно найти на нашем сайте, воспользовавшись алфавитным указателем вверху страницы.


 
Ошибка в тексте? Выделите ошибку и нажмите Ctrl+Enter