----------------------------------------------------------------------------
			     UNDIVIDED - Bon Jovi
----------------------------------------------------------------------------
Tabbed by:Aaron
Email:[email protected]

Tuning: standard

ELECTRIC GUITAR(distortion) 1 & RHYTHM GUITAR 4x 
e|--------------------------------------------------------------------|
B|--------------------------------------------------------------------|
G|--------------------------------------------------------------------|
D|--------------------------------------------------------------------|
A|-------------3-2------2-3-----2-3-----------3-2----2-3-----2-3------|
E|-0-0-2-3-0-0-3-2----0-2-3-0-0-2-3---0-0-2-3-3-2--0-2-3-0-0-2-3------|

ELECTRIC GUITAR(distortion) 2 
e|---------------------0----------------------------------------------|
B|---------------------3------------------3---------------------------|
G|---------------------2--------------------2-------------------------|
D|---------------------0----------------------0-----------------------|
A|------------------------------------------------0-------------------|
E|------------------------------------------------------0-------------|

.....-----------------------CHORUS-----------------------.....

ELECTRIC GUITAR(distortion) 4
e|----------------|---|-------------------|---------------------------|
B|----------------|---|-------------------|---------------------------|
G|-7--75--5/7--7-|---|-7--75--5/7--7--5-|-7--75--5/7-7-------------|
D|-7--75--5/7--7-|-X2|-7--75--5/7--7--5-|-7--75--5/7-7-------------|
A|-5--53--3/5--5-|---|-5--53--3/5--5--3-|-5--53--3/5-5-------------|
E|----------------|---|-------------------|---------------------------|

e|----------------|------------------|--------------------------------|
B|----------------|------------------|--------------------------------|
G|-7--75/7-7-7-7-|--7--75--5/7--7--|-7--75-5/7-7-5-5--5----------|
D|-7--75/7-7-7-7-|--7--75--5/7--7--|-7--75-5/7-7-5-5--5----------|
A|-5--53/5-5-5-5-|--5--53--3/5--5--|-5--53-3/5-5-3-3--3----------|
E|----------------|------------------|--------------------------------|

......-----------------------SOLO------------------------......

ELECTRIC GUITAR 3
e|------------------------------------------------------------10-10-10|
B|--------------------------6-8-8b10r8p6----------------------13-13-15|
G|--7-7-5--7-7-5-7---7-5-7---------------7--5-------------------------|
D|--0------0-------0-----7--------------------3-5-5b7r5-3--5/---------|
A|--------------------------------------------------------------------|
E|--------------------------------------------------------------------|

e|10-10-10-10-10-10-10-10-10-10-10-10-10--------13--------------------|
B|15-13-13-13-13-13-13-13-13-13-13-13-13--13--------------------------|
G|-------------------------------------------12----12-12h10----10-----|
D|----------------------------------------------------------12--------|
A|--------------------------------------------------------------------|
E|--------------------------------------------------------------------|

e|----------------|
B|----------------|
G|-10-109--75-7-|
D|----------------|
A|----------------|
E|----------------|

OUTRO 

ELECTRIC GUITAR (clean)
e|---12-12-12-12-12-12-12-12-12-12-12-12-12-12-12-12-12-12-12-12-12-12-12|
B|---15-15-15-15-15-15-15-15-15-15-15-15-15-15-15-15-15-15-15-15-15-15-15|
G|---14-14-14-14-14-14-14-14-14-14-14-14-14-14-14-14-14-14-14-14-14-14-14|
D|-----------------------------------------------------------------------|
A|-----------------------------------------------------------------------|
E|-----------------------------------------------------------------------|

e|---12-12-12-12-12-12-12-12-|
B|---15-15-15-15-15-15-15-15-|
G|---14-14-14-14-14-14-14-14-|
D|---------------------------|
A|---------------------------|
E|---------------------------|


| /  slide up
|   slide down
| h  hammer-on
| p  pull-off
| ~  vibrato
| +  harmonic
| x  Mute note
===========================================================================


Текст, аккорды и табулатура для песни "Undivided", исполняет "Bon Jovi".
Используемые в песне аккорды можно найти в разделе Как брать аккорды. Аккорды для шестиструнной гитары. Другие песни можно найти на нашем сайте, воспользовавшись алфавитным указателем вверху страницы.


 
Ошибка в тексте? Выделите ошибку и нажмите Ctrl+Enter