Tabbed By [email protected] - BoB
Quite an easy song, but try to listen for the timing

BON JOVI – ONE WILD NIGHT 2001 VERSION
Guitar intro (slide)

CHORUS
G|---------------------|---------------------|
D|---------------------|---------------------|
A|--3-3--1-3-----3---3-|-1-1----1-3-3-1---1--|
E|-----------3-3---3---|-----3----------3----|

G|---------------------|---------------------|
D|-----------1-1---1---|---------------------|
A|--3-3--1-3-----3---3-|-1-1----1-3-3-1---1--|
E|---------------------|-----3----------3----|

VERSE X 3 + half
G|--------------------|---------------------|
D|-----------------1--|---------------------|
A|--3-3---1-3-3-1-----|--3-3---1-3-3-1---1--|
E|------3-------------|------3---------3----|

CHORUS

LINK 1
G|--7---5----------|
D|----------7---5--|
A|-----------------|
E|-----------------|

FILL 1
G|----------------------|
D|----------------------|
A|--3-3---1-3-3-1----1--|
E|------3----------3----|

VERSE X 3 + half
CHORUS X 2

LINK 2					 (last time)
G|--7---5-----------------------------|-------|
D|----------7---5---------------------|-------|
A|------------------5---3-------------|-------|
E|--------------------------5---3-----|----1--|

CHORUS (during guitar solo)
LINK 2

Break (na na…)

CHORUS X 3 + three quarters
LINK 2


Текст, аккорды и табулатура для песни "One Wild Night", исполняет "Bon Jovi".
Используемые в песне аккорды можно найти в разделе Как брать аккорды. Аккорды для шестиструнной гитары. Другие песни можно найти на нашем сайте, воспользовавшись алфавитным указателем вверху страницы.


 
Ошибка в тексте? Выделите ошибку и нажмите Ctrl+Enter