Bon Jovi - Livin' on a prayer.
Tabbed by Storm -  [email protected]
  
Livin' On A Prayer
Tuning:standard





   Intro: (Talkbox & distortion)      *GUITAR COMES IN*
                                       Em

e:-----------------|-----------------|-----------------|-----------------|
B:-----------------|-----------------|-----------------|-----------------|
G:-----------------|-----------------|-----------------|-----------------|
D:-----------------|-----------------|---2---0-------0-|---2---0-------0-|
A:-----------------|-----------------|-----2-------2---|-----2-------2---|
E:-----------------|-----------------|-0-------0-0-----|-0-------0-0-----|




   
e:-----------------|-----------------|-----------------|-----------------|
B:-----------------|-----------------|-----------------|-----------------|
G:-----------------|-----------------|-----------------|-----------------|
D:---2---0-------0-|---2---0-------0-|---2---0-------0-|---2---0-------0-|
A:-----2-------2---|-----2-------2---|-----2-------2---|-----2-------2---|
E:-0-------0-0-----|-0-------0-0-----|-0-------0-0-----|-0-------0-0-----|




   
e:-----------------|-----------------|-----------------|-----------------|
B:-----------------|-----------------|-----------------|-----------------|
G:-----------------|-----------------|-----------------|-----------------|
D:---2---0-------0-|---2---0-------0-|---2---0-------0-|---2---0-------0-|
A:-----2-------2---|-----2-------2---|-----2-------2---|-----2-------2---|
E:-0-------0-0-----|-0-------0-0-----|-0-------0-0-----|-0-------0-0-----|
                                       Once upon a time      Not so long

                     Verse: 

 
e:-----------------|-----------------|-----------------|-----------------|
B:-----------------|-----------------|-----------------|-----------------|
G:-----------------|-----------------|-----------------|-----------------|
D:---2---0-------0-|-----------------|-----------------|-----------------|
A:-----2-------2---|-----------------|-----------------|-----------------|
E:-0-------0-0-----|-----------------|-----------------|-----------------|
   ago              Tommy used to walk on the docks      Union's been...


                     C5                D5                Em 

e:-----------------|-----------------|-----------------|-----------------|
B:-----------------|-----------------|-----------------|-----------------|
G:-----------------|-----------------|-----------------|-----------------|
D:-----------------|-5---------------|-7---------------|---2---0-------0-|
A:-----------------|-3---------------|-5---------------|-----2-------2---|
E:-----------------|-----------------|-----------------|-0-------0-0-----|
   Down on his...    Tough                    So tough



 
e:-----------------|-----------------|-----------------|------------------|
B:-----------------|-----------------|-----------------|------------------|
G:-----------------|-----------------|-----------------|------------------|
D:---2---0---------|-----------------|-----------------|------------------|
A:-----2-----------|-----------------|-----------------|------------------|
E:-0---------------|-----------------|-----------------|------------------|
   Gina works the diner all day        Working for...    Brings home...


   C5                D5                Em
   
e:-----------------|-----------------|-----------------|-----------------|
B:-----------------|-----------------|-----------------|-----------------|
G:-----------------|-----------------|-----------------|-----------------|
D:-5---------------|-7---------------|---2---0-------0-|---2---0-------0-|
A:-3---------------|-5---------------|-----2-------2---|-----2-------2---|
E:-----------------|-----------------|-0-------0-0-----|-0-------0-0-----|
   love                     For love                     She says we gotta
   
   Chorus 
   C5  D5                    E5        C5  D5                    E5
   
e:-----------------|-----------------|-----------------|-----------------|
B:-----------------|-----------------|-----------------|-----------------|
G:-----------------|-----------------|-----------------|-----------------|
D:-5----5------X---|-7---7---9---X---|-5----5------X---|-7---7---9---X---|
A:-3----7------X---|-5---5---7---X---|-3----7------X---|-5---5---7---X---|
E:-----------------|-----------------|-----------------|-----------------|
   hold on     to    what we've got    Doesn't make a..  make it or...


   C5  D5                    E5        C5                D5
 
e:-----------------|-----------------|-----------------|-----------------|
B:-----------------|-----------------|-----------------|-----------------|
G:-----------------|-----------------|-----------------|-----------------|
D:-5----7------X---|-7---7---9---7---|-5---------------|-7-7-7-7---------|
A:-3----5------X---|-5---5---7---5---|-3---------------|-5-5-5-5---------|
E:-----------------|-----------------|-----------------|-----------------|
   Got eachother..   Thats a lot for   love      We'll   give it a shot

                                                   P.M.
   E5  C5            D5                G5  C5            D5
  
e:-----------------|-----------------|-----------------|-----------------|
B:-----------------|-----------------|-----------------|-----------------|
G:-----------------|-----------------|-----------------|-----------------|
D:-2---5-------5---|/7---------------|-----5-----------|-7---------------|
A:-2---3-------3---|/5---------------|-5---3-------3-0-|-5---------------|
E:-0---------------|-----------------|-3---------------|-----------------|
   Ohh..     We're   halfway there     Whoa-oh     Li  - vin' on a prayer

                                                   P.M.
   E5  C5            D5                G5  C5            D5                                               
   
e:-----------------|-----------------|-----------------|-----------------|
B:-----------------|-----------------|-----------------|-----------------|
G:-----------------|-----------------|-----------------|-----------------|
D:-2---5-----------|-7---------------|-----5-----------|-7---------------|
A:-2---3-----------|-5---------------|-5---3-------3-3-|-5---------------|
E:-0---------------|-----------------|-3---------------|-----------------|
   Take my hand..    make it I swear   Whoa-oh     Liv - in on a prayer

   Verse 2
   Em
 
e:-----------------|-----------------|-----------------|-----------------|
B:-----------------|-----------------|-----------------|-----------------|
G:-----------------|-----------------|-----------------|-----------------|
D:---2---0-------0-|---2---0-------0-|---2---0-------0-|---2---0-------0-|
A:-----2-------2---|-----2-------2---|-----2-------2---|-----2-------2---|
E:-0-------0-0-----|-0-------0-0-----|-0-------0-0-----|-0-------0-0-----|
                                       Tommy's got his 6-string in hock

                                      
                                            
  
e:-----------------|-----------------|-----------------|-----------------|
B:-----------------|-----------------|-----------------|-----------------|
G:-----------------|-----------------|---------14f^-14-|^14~~~~~~~-------|
D:---2---0-------0-|---2---0-------0-|-----------------|-----------------|
A:-----2-------2---|-----2-------2---|-----------------|-----------------|
E:-0-------0-0-----|-0-------0-0-----|-----------------|-----------------|
   Now he's...       When he used..    tough                  it's tough

                                      W/talkbox
                               Em
  
e:-20f^-~~~~~~~~~~--|-15-------------|-----------------|-----------------|
B:-----------------|----17~~~~~~-----|-----------------|-----------------|
G:-----------------|-------------0---|-----------------|-----------------|
D:-----------------|-----------------|---2---0-------0-|---2---2-------0-|
A:-----------------|-----------------|-----2-------2---|-----2-------2---|
E:-----------------|-----------------|-0-------0-0-----|-0-------0-0-----|
                                       Gina dreams of runnin' away


                                       C5                D5
 
e:-----------------|-----------------|-----------------|-----------------|
B:-----------------|-----------------|-----------------|-----------------|
G:-----------------|-----------------|-----------------|-----------------|
D:---2---2-------0-|---2---2-------0-|-5---------------|-7---------------|
A:-----2-------2---|-----2-------2---|-3---------------|-5---------------|
E:-0-------0-0-----|-0-------0-0-----|-----------------|-----------------|
   She cries in...   whispers, baby..  okay                         Some -

                                       Repeat chorus 
   Em                                  Solo: 
  
e:-----------------|-----------------|-3---------------|-----------------|
B:-----------------|-----------------|-3---------------|-----------------|
G:-----------------|-----------------|-5----/7---/12---|-----------------|
D:---2---0-------0-|---2---0-------0-|-5----/7---/10---|-----------------|
A:-----2-------2---|-----2-------2---|-3----/5---/10---|-----------------|
E:-0-------0-0-----|-0-------0-0-----|-----------------|-----------------|
   day                      We gotta   Livin on a prayer...


                    G.P.
   
e:-----------------|-----------12-14-|-15------------------|-----------------|
B:-----------------|----------X------|----15-12-13--15^-15-|----^15-15~~~~~--|
G:-----------------|---------X-------|---------------------|-----------------|
D:---------5-7-7f^-|^7---------------|---------------------|-----------------|
A:-7-5--7----------|---5-5~~~--------|---------------------|-----------------|
E:-----------------|-----------------|---------------------|-----------------|


                                                                    
                   1/2              G.P.
 
e:---------------------|---------------12-14-|-15------------------|
B:------12-13-12-11^---|^11-----------X------|----15-12-13---12----|
G:------12-14-12-------|----12-------X-------|------------------12-|
D:--------X--X--X------|------12~~~----------|---------------------|
A:---------------------|---------------------|---------------------|
E:---------------------|---------------------|---------------------|



                                       C5  D5                    E5  
D5

+
e:-----------------|-----------15--17-17^-17~~|-----------------|--------------|
B:-15f^-15----^15--|------15h17--17-----------|-----------------|--------------|
G:-----------------|-14h15--------------------|-----------------|--------------|
D:-----------------|--------------------------|-5----7----------|-7--7--7--7---|
A:-----------------|--------------------------|-3----5----------|-5--5--9--5---|
E:-----------------|--------------------------|-----------------|--------------|
                     Oooooh       We've gotta   hold on           Ready or not..


   C5                D5            G5  Eb5           F5
   
e:-----------------|-------------|-----------------|-----------------|
B:-----------------|-------------|-----------------|-----------------|
G:-----------------|-------------|-----------------|-----------------|
D:-5---------------|-7-7-7-7-----|-----8-----------|-3---------------|
A:-3---------------|-5-5-5-5-----|-5---6-----------|-3---------------|
E:-----------------|-------------|-3---------------|-1---------------|
   Live for the...   all that....  Whoa-oh   We're   half way there


   Bb5  Eb5          F5                G5  Eb5           F5
   
e:-----------------|-----------------|-----------------|-----------------|
B:-----------------|-----------------|-----------------|-----------------|
G:------8----------|-----------------|-----------------|-----------------|
D:-8----8----------|-3---------------|-----8-----------|-3---------------|
A:-8----6----------|-3---------------|-5---6-----------|-3---------------|
E:-6---------------|-1---------------|-3---------------|-1---------------|
   Whoa-oh!     Li - vin' on a prayer  Take my hand      Make it I swear


   Bb5  Eb5          F5
   
e:-----------------|-----------------|
B:-----------------|-----------------|
G:------8----------|-----------------|
D:-8----8----------|-3---------------|
A:-8----6----------|-3---------------|
E:-6---------------|-1---------------|
   Whoa-oh!    Liv - in' on a prayer

 
:: Ultimate Guitar Archive :: 
http://www.ultimate-guitar.com 



Текст, аккорды и табулатура для песни "Livin On A Prayer", исполняет "Bon Jovi".
Используемые в песне аккорды можно найти в разделе Как брать аккорды. Аккорды для шестиструнной гитары. Другие песни можно найти на нашем сайте, воспользовавшись алфавитным указателем вверху страницы.


 
Ошибка в тексте? Выделите ошибку и нажмите Ctrl+Enter