BAD MEDICINE- BON JOVI
Tab By:Ertunc Kocakoglu (Mr.Sambo)

Keyboard Bit:

E----0-0-0-0-0-0-0-0--0-0-0-0-0-0-0-0--0-0-0-0-0-0-0-0--0-0-0-0-0-0-0-0--
B----5-5-5-5-5-5-5-5--3-3-3-3-3-3-3-3--2-2-2-2-2-2-2-2--3-3-3-3-3-3-3-3--



Intro:                                                

E----------0--(0)-               
B----------0--(0)-               
G----------------- Repeat Twice  
D-------2---------               
A-------2---------               
E--2^2--0---------               
        

                                                           
 Main Riff:                  

|---------------------------------------------------------------|
|---------------------------------------------------------------|
|---------------------------------------------------------------|
|-------2----------2---7-------2-----7---7--7---7----------2--2-|
|-------2----------2---7-------2-----7---7--7---7----------2--2-|
|--2^2--0---2^2----0---5--2^2--0-----5---5--5---5--0--2^2--0--0-|

 

E--------------------------------------------------------------------------------
B--------------------------------------------------------------------------------
G---4--4--------4--4--4--4----4----------------------4--4--------4--4--4--4------
D---2--2--0-----0--2--5--2----2--0-------------------2--2--0-----0--2--5--2------
A------------2----------------------2-------------------------2------------------   
E--------------------------------------35--5--3--------------------------------

                                                                           

E--------------------------------------------------
B--------------------------------------------------
G---4--4--------4--4--4--4----4--------------------      
D---2--2--0-----0--2--5--2----2--0-----------------         
A------------2----------------------2--------------                     
E--------------------------------------35--5--3--

E--------------------------------------------|                          
B--------------------------------------------|
G--------------------------------------------|
D---2--------2--2-----2-2--------57--7--5--|
A---0--------0--0-----0-0--------------------|
E------3--0--------3-------3--0--35--5--3--|


E|------------------------------------------------|
B|------------------------------------------------|
G|-4--4--------4--4--4--4----4--------------------|
D|-2--2--0-----0--2--5--2----2--0-----57--7--5--|
A|----------2----------------------2--------------|
E|------------------------------------35--5--3--|



E-----------------------------------
B-----------------------------------
G-----------------------------------  
D--4--4--------4--4----4----4----4--  
A--2--2--0-----0--2----2----2----2--
E-----------2-----------------------


Текст, аккорды и табулатура для песни "Bad Medicine", исполняет "Bon Jovi".
Используемые в песне аккорды можно найти в разделе Как брать аккорды. Аккорды для шестиструнной гитары. Другие песни можно найти на нашем сайте, воспользовавшись алфавитным указателем вверху страницы.


 
Ошибка в тексте? Выделите ошибку и нажмите Ctrl+Enter