ARTIST: Bon Jovi
TITLE: All About Lovin' You
ALBUM: Bounce
TABBED BY: Martin Kelly


There are three guitars in this, but I've arranged it for two.

GTR 1

E------------------------------------------------------------------------------
B--8---------------10--------------13--10/13-1212-10/12-10---------------------
G--------------7-------------------------------------------------7/9-----------
D------------------------------------------------------------------------------
A------------------------------------------------------------------------------
E------------------------------------------------------------------------------
]
]GTR 2
]
E------3-------3-------3-------3-------3-------3-----------3-------------------
B----3---3---3---3---3---3---3---3---3---3---3---3-------3---3-----------------
G------------------------------------------------------------------------------
D------------------------------------------------------------------------------
A------------------------------------------------------3-------3---------------
E--3-------3-------2-------2-------1-------1-----------------------------------

VERSE 1

E------------------------------------------------------------------------------
B------------------------------------------------------------------------------
G--7---------------------------------------------------------------------------
D------------------------------------------------------------------------------
A------------------------------------------------------------------------------
E------------------------------------------------------------------------------
]
]
]
E------3-------3-------3-------3-------3-------3-----------3-------------------
B----3---3---3---3---3---3---3---3---3---3---3---3-------3---3-----------------
G------------------------------------------------------------------------------
D------------------------------------------------------------------------------
A------------------------------------------------------3-------3---------------
E--3-------3-------2-------2-------1-------1-----------------------------------

VERSES 2+3

E------------------------------------------------------------------------------
B----------3---------------3---------------3-------------------3---------------
G-------0---------------0---------------0-------------------0------------------
D------------------------------------------------------------------------------
A------------------------------------------------------------------------------
E--3---------------2---------------1-------------------3-----------------------
]
]
]
E------3-------3-------3-------3-------3-------3-----------3-------------------
B----3---3---3---3---3---3---3---3---3---3---3---3-------3---3-----------------
G------------------------------------------------------------------------------
D------------------------------------------------------------------------------
A------------------------------------------------------3-------3---------------
E--3-------3-------2-------2-------1-------1-----------------------------------

PRE-CHORUS

E--3--------3--------3--------3--------3--------3------------------------------
B-----3--------3--------3--------3--------3--------3---------------------------
G------------------------------------------------------------------------------
D------------------------------------------------------------------------------
A------------------------------------------------------------------------------
E------------------------------------------------------------------------------
]
]
]
E-------3--------2--------3--------2--------3--------3-------------------------
B-----3---3----3---3----3---3----3---3----3---3----3---3-----------------------
G------------------------------------------------------------------------------
D--------------------0-----------------------------------0---------------------
A-----------------------------2-----------------3------------------------------
E--3--------2--------------------------3---------------------------------------

CHORUS
							   X
E------------------------------------------------------------------------------
B------------------------------------------------------------------------------
G-----------------4----------------5-------------------------------------------
D--5--------------4----------------5--------------------------5----------------
A--5--------------2----------------3-------------3--5--6--7---5----------------
E--3----------------------------------------------------------3----------------

E------------------------------------------------------------------------------
B------------------------------------------------------------------------------
G--4-------------------------------7-------------------------------------------
D--4--------------3----------------7-------5-----------------------------------
A--2--------------3----------------5-------5-----------------------------------
E-----------------1------------------------3-----------------------------------

BRIDGE

E------------------------------------------------------------------------------
B------------------------------------------------------------------------------
G--2-------4------5---------------2--------4--------5-------7------------------
D--2-------4------5---------------2--------4--------5-------7------------------
A--0-------2------3---------------0--------2--------3-------5------------------
E------------------------------------------------------------------------------

SOLO [GTR 2 plays CHORUS figure up to the X]

E--15--15----15----15----17--17----17----17------------------------------------
B---------15----15----15--------15----15----15---------------------------------
G------------------------------------------------------------------------------
D------------------------------------------------------------------------------
A------------------------------------------------------------------------------
E------------------------------------------------------------------------------


For a list of tabs contact [email protected]


Текст, аккорды и табулатура для песни "All About Lovin You", исполняет "Bon Jovi".
Используемые в песне аккорды можно найти в разделе Как брать аккорды. Аккорды для шестиструнной гитары. Другие песни можно найти на нашем сайте, воспользовавшись алфавитным указателем вверху страницы.


 
Ошибка в тексте? Выделите ошибку и нажмите Ctrl+Enter