*************************************************
* Bohemia Suburbana                             *
* Detras de mama                                *
* www.rockchapin.com                            *
*************************************************


INTRO (CON WAWA)

e|-5---5-|
B|-5---6-|
G|-5---7-|
D|-7-----|
A|-------|
E|-------|
Tiene mucho down y tiene mucho tempo y tiene mucho down

e|-------------------------------------------|
B|-4-2-4-2-4/5-4-2-4-2-4-2-4/5-4-2-7-5-4-2-0-|
G|-------------------------------------------|
D|-------------------------------------------|
A|-------------------------------------------|
E|-------------------------------------------|

-7-7-7-5-4-2-0-0-0-2-4/5-2-4-0-0/2-0-4/5-2-4-2b-0|
-------------------------------------------------|
-------------------------------------------------|
-------------------------------------------------|
-------------------------------------------------|
-------------------------------------------------|

e|-5---5-|
B|-5---6-|
G|-5---7-|
D|-7-----|
A|-------|
E|-------|
Ya lo ves yo te dec?a
en aquella melod?a
no juzguez sin pensar,
no quites si no tienes para dar
y el ladr?n y el polic?a
en mi maldita pesadilla
me tratan de robar
me tratan de matar mi libertad
y yo

B5 F#5   D5     E5
Yo ya no quiero esconderme mas
B5 F#5   D5     E5
ni fumar sue?os detr?s de mam?
D5 A5     E5    G5 D5        A5  E5  G5
ya no nos dejan ni bailar en paz
D5      A5          E5  G5
aquella bella danza sexual

F#5     G5
Uoooooo uo
F#5     G5
Uoooooo uo
sexual

e|-5---5-|
B|-5---6-|
G|-5---7-|
D|-7-----|
A|-------|
E|-------|
Ahora soy un pordiosero
mendigando en basureros
pidiendo perd?n al que muri? por vos
y por mi
Ya lo ves yo te dec?a
en aquella melod?a
no juzguez sin pensar,
no quites si no tienes para dar

B5 F#5   D5     E5
Yo ya no quiero esconderme mas
B5 F#5   D5     E5
ni fumar sue?os detr?s de mam?
D5 A5     E5    G5 D5        A5  E5  G5
ya no nos dejan ni bailar en paz
D5      A5          E5  G5
aquella bella danza sexual

F#5     G5
Uoooooo uo
F#5     G5
Uoooooo uo
sexual

|--------------8----8--10b-10b-10b--8--10b-10b-10b--8--10b-10b-10b--8-----|
|---------8-10--10----------------------------------------------------10--|
|---6/8-------------------------------------------------------------------|
|-------------------------------------------------------------------------|
|-------------------------------------------------------------------------|
|-------------------------------------------------------------------------|


|-------7-9--9/12--7--------------11-14-13------------------------------------------|
|---7/9--------------9-8-7-----12---------14--14-14-14-14h16-14-12h14-12------------|
|---------------------------13-------------------------------------------13--13-13--|
|-----------------------------------------------------------------------------------|
|-----------------------------------------------------------------------------------|
|-----------------------------------------------------------------------------------|


|---12-12-11-11-9-9---------------------------------------------|
|-------------------12-12-10-10-9-9-----------------------------|
|-----------------------------------11-11-9-9--8-8-8h9-8--------|
|--------------------------------------------------------9--9-9-|
|---------------------------------------------------------------|
|---------------------------------------------------------------|


|-----------------------------------------------------------------------------------7--|
|----------------9-------------------9-----9--12h15-12-9--9-9-9-9--7-7-7h9-9--7-8-9----|
|---8-6-8-6--8/9---9-8--8-6-8-6--8/9---9-----------------------------------------------|
|--------------------------------------------------------------------------------------|
|--------------------------------------------------------------------------------------|
|--------------------------------------------------------------------------------------|


|---------------------------------------------------------------|
|---10h12-10h12-10h12-10h12-10fb--10h12-10h12-10h12-10h12-10fb--|
|---------------------------------------------------------------|
|---------------------------------------------------------------|
|---------------------------------------------------------------|
|---------------------------------------------------------------|

B5 F#5   D5     E5
Yo ya no quiero esconderme mas
B5 F#5   D5     E5
ni fumar sue?os detr?s de mam?
D5 A5     E5    G5 D5        A5  E5  G5
ya no nos dejan ni bailar en paz
D5      A5          E5  G5
aquella bella danza sexual
========================================================================================
Tabbed by: Viuda Negra
Viva la garra Chapina!!!!!
[email protected]
Gracias a Whiskey por el solo.


Текст, аккорды и табулатура для песни "Detras De Mama", исполняет "Bohemia Suburbana".
Используемые в песне аккорды можно найти в разделе Как брать аккорды. Аккорды для шестиструнной гитары. Другие песни можно найти на нашем сайте, воспользовавшись алфавитным указателем вверху страницы.


 
Ошибка в тексте? Выделите ошибку и нажмите Ctrl+Enter