Artist: Bodyjar
Song: Not the Same
Tabbed by: Andrew Lassise

Tuning: Standard

e|-------------------------------------------------------------------------|
B|-------------------------------------------------------------------------|
G|-------------------------------------------------------------------------|
D|----9~-------------------------------------------------------------------|
A|----9~-------------------------------------------------------------------|
E|----7~-------------------------------------------------------------------|

Intro: Guitar 1
e|------------4--2---------------------------------------------------------|
B|--5-5-5-5---------5-4-5-5-5-5--------------------------------------------|
G|-------------------------------------------------------------------------|
D|-------------------------------------------------------------------------|
A|-------------------------------------------------------------------------|
E|-------------------------------------------------------------------------|
Intro: Guitar 2
e|-------------------------------------------------------------------------|
B|-------------------------------------------------------------------------|
G|-----9-------------------------------------------------------------------|
D|-----9----------10---------11---------7----------------------------------|
A|-----7----------10---------11---------7----------------------------------|
E|----------------8----------9----------5----------------------------------|

Verse:
e|-------------------------------------------------------------------------|
B|-------------------------------------------------------------------------|
G|-----9---------------------6---------------------------------------------|
D|-----9----------6----------6----------7----------------------------------|
A|-----7----------6----------4----------7----------------------------------|
E|----------------4---------------------5----------------------------------|

Prechorus:
e|-------------------------------------------------------------------------|
B|-------------------------------------------------------------------------|
G|-----6X---------5X-------------------------------------------------------|
D|-----6X---------5X---------4--------4------------------------------------|
A|-----4X---------3X---------4--------4------------------------------------|
E|---------------------------2--------2------------------------------------|

Chrous:
e|-------------------------------------------------------------------------|
B|-------------------------------------------------------------------------|
G|----------------9-9-9-9-------------------------9-9-9-9------------------|
D|--9-7-7-7-7-9-9-9-9-11-11-11-11-7-7-7-7-7-7-7-7-9-9-9-9-4X---------------|
A|--9-7-7-7-7-7-7-7-7-11-11-11-11-7-7-7-7-7-7-7-7-7-7-7-7-4X---------------|
E|--7-5-5-5-5----------9--9--9--9-5-5-5-5-5-5-5-5---------2X---------------|


Solo: Guitar 1
|---------------------------------------------------------------------------------------|
|---------------------------------------------------------------------------------------|
|---------------------------------------------------------------------------------------|
|-6-6-6-6-6-6-6-6-9-9-11-14-9-9-11-14-6-6-6-6-6-6-6-6-9-9-11-14-9-9-11-14-6-6-6-6-6-6-6-|
|---------------------------------------------------------------------------------------|
|---------------------------------------------------------------------------------------|

Solo: Guitar 2
|---------------------------------------------------------------------------------------|
|---------------------------------------------------------------------------------------|
|---------------------------------------------------------------------------------------|
|-6-6-6-6-6-6-6-6-9-9--9--7-6-6--6--6-6-6-6-6-9-9-9-7-6-6--6--6-6-6--6--6-9-9-9-7-6-6-6-|
|-6-6-6-6-6-6-6-6-9-9--9--7-6-6--6--6-6-6-6-6-9-9-9-7-6-6--6--6-6-6--6--6-9-9-9-7-6-6-6-|
|-4-4-4-4-4-4-4-4-7-7--7--5-4-4--4--4-4-4-4-4-7-7-7-5-4-4--4--4-4-4--4--4-7-7-7-5-4-4-4-|

Solo: Guitar 1 (continued)
|------------------------------------------------------------------------------|
|------------------------------------------------------------------------------|
|------------------------------------------------------------------------------|
|-6-9-9-11-14-9-9-11-14-6-6-6-6-6-6-6-6-9-9-11-14-9-9-11-14-14-14-14-11--9-11--|
|------------------------------------------------------------------------------|
|------------------------------------------------------------------------------|

Solo: Guitar 2 (continued)
|------------------------------------------------------------------------------|
|------------------------------------------------------------------------------|
|------------------------------------------------------------------------------|
|-6-6-6--6--6-9-9--9--7-6-6-6-6-6-6-6-6-9-9--9--7-7-7--7--7----------(7)-------|
|-6-6-6--6--6-9-9--9--7-6-6-6-6-6-6-6-6-9-9--9--7-7-7--7--7----------(7)-------|
|-4-4-4--4--4-7-7--7--5-4-4-4-4-4-4-4-4-7-7--7--5-5-5--5--5----------(5)-------|

e|-------------------------------------------------------------------------|
B|-------------------------------------------------------------------------|
G|-----9---4-9-------------------------------------------------------------|
D|-----9-6-4-9-------------------------------------------------------------|
A|-----7-6-6-7-------------------------------------------------------------|
E|-------4-----------------------------------------------------------------|


Текст, аккорды и табулатура для песни "Not The Same", исполняет "Bodyjar".
Используемые в песне аккорды можно найти в разделе Как брать аккорды. Аккорды для шестиструнной гитары. Другие песни можно найти на нашем сайте, воспользовавшись алфавитным указателем вверху страницы.


 
Ошибка в тексте? Выделите ошибку и нажмите Ctrl+Enter