As seen on Conan O'Brien circa 1992

capo=2nd fret (all TAB noted without consideration of capo, ie. not relative)

intro:
	     
E------------------------------------------------------------------------------|
B-5/12--12h14--14--12--12---5h7--7----5--5------------------------------------|
G-5/12--12h14--14--12--12---5h7--7----7--6------------------------------------|
D-5/12--12h14--14--12--12---5h7--7----7--7------------------------------------|
A------------------------------------------------------------------------------|
E------------------------------------------------------------------------------|

verse:

E-4--4-00-0-0--------------------0---------------------------------------------|
B-5--5-01-1-0h1p0--2-s-5---0h2-2-0h1p0-----------------------------------------|
G-4--4-00-0-0------2-s-5---0h2-2-0---------------------------------------------|
D-2--2-02-2-2------2-s-5---0h2-2-2---------------------------------------------|
A-------3-3-3------0-------0-0-0-3---------------------------------------------|
E------------------------------------------------------------------------------|

chorus:

E-4-4-x-0-0--3-3--5-5---3-3--5-5--4-4--5554--|
B-5-5-x-1-1--3-3--5-5---3-3--5-5--5-5--5555--|
G-4-4-x-0-0--4-4--6-6---4-4--6-6--4-4--4444--|
D-2-2-x-2-2--5-5--7-7---5-5--7-7--2-2--2222--|
A-------3-3--5-5--7-7---5-5--7-7-------------|
E------------3-3--5-5---3-3--5-5-------------|

chorus (last time):

E-4-4-x-0-0--3-3--5-5---3-3--5-5--4-4------------------------------------------|
B-5-5-x-1-1--3-3--5-5---3-3--5-5--5-5--3p2h3-------------3p2h3-----------------|
G-4-4-x-0-0--4-4--6-6---4-4--6-6--4-4--------4---4-----------------------------|
D-2-2-x-2-2--5-5--7-7---5-5--7-7--2-2----------5---5s7-7-----------------------|
A-------3-3--5-5--7-7---5-5--7-7-----------------------------------------------|
E------------3-3--5-5---3-3--5-5-----------------------------------------------|

solo note TABed

outro:
								    end:
E------------------------------------------------------------------------------|
B-12--12-12-12---5-5---4-4---7-7---(7--9)--------------------------------------|
G-12--12-12-12---5-5---4-4---7-7---(7--9)--------------------------------------|
D-12--12-12-12---5-5---4-4---7-7---(7--8)--------------------------------------|
A-10--10-10-10---7-7---2-2---5-5---(5--7)--------------------------------------|
E------------------------------------------------------------------------------|


Текст, аккорды и табулатура для песни "Theres No Other Way", исполняет "Blur".
Используемые в песне аккорды можно найти в разделе Как брать аккорды. Аккорды для шестиструнной гитары. Другие песни можно найти на нашем сайте, воспользовавшись алфавитным указателем вверху страницы.


 
Ошибка в тексте? Выделите ошибку и нажмите Ctrl+Enter