Intro:

E --------------------0----------------h-p-----------------
B ----0-2-0-------0-2---1/2---------2-2-3-2---------3-1/2--
G --2-------2-2-2-----------2---2-----------1---1-1-1-1/2--
D ----------------------------2-------------2--------------
A --------------------------------0------------------------
E --------------------------------------------0------------

E ----------------------0--------------h-p--------0---0--------
B ----0-2-0---------0-2---1/2-------2-2-3-2---------0---0---2--
G --2---2-----2---2-----------2-------------0-1-------------2--
D ----------2-------------------2---------------2---------2----
A --------------0-----------------0----------------------------
E -------------------------------------------------------------

E --------------------------------
B --------2-2-----2--------2-2----
G --2--2------2-2----2--2------2--
D --------------------------------
A --------------------------------
E --------------------------------

E ----------------------------0--------------------h-p---------
B ----0-2-0-------------0-1/2---1/2-----------2-2-2-3-2--------
G --2-------2---------2-----------------------2---------0-1----
D ------------2---------------------2-----------------------2--
A --------------0-0-0-----------------0-0-0-0------------------
E -------------------------------------------------------------

E -----------------------
B --3-----3-1-2----------
G ----1---1-1-2----------
D ------2-2-----2--------
A ----------------0-0-0--
E -----------------------

A                   G             A
Tender is the night lying by your side

A                      G                A
Tender is the touch of someone that you love too much

A                     G          A
Tender is the day the demons go away

A                   G               A
Lord I need to find someone who can heal my mind



A                              D   C
Come on, come on, come on,     get through it

A                              C#m        D
Come on, come on, come on,     love´s the greatest thing

A                              D   C
Come on, come on, come on,     get through it

A                              C#m        D
Come on, come on, come on,     love´s the greatest thing

C#m     D
That we have

    C#m              D
I´m waiting for that feeling

      C#m              D
(I´m) Waiting for that feeling

A                D          A
Waiting for that feeling to come


A                          E7      A
Oh my baby, oh my baby, oh why, oh my

A                       E7      A
Oh my baby, oh my baby, oh why, oh my



A			 G		  A
Tender is the ghost, the ghost I love the most

A		     G		     A
Hiding from the sun, waiting for the night to come

A		       G	      A
Tender is my heart for screwing up my life

A		    G		    A
Lord I need to find someone who can heal my mind


Solo:

E ----------------------------------------5-3-0-2-3-2-0-------
B -----------5----------------------2-------------------------
G --5^-5^-5^---5^-0------h-p----------2-----------------5^-0--
D -------------------h--0-2-0---------------------------------
A ------------------0-2-------2-0-0-----0---------------------
E ------------------------------------------------------------

E -------------------
B -------------------
G -------h-p---------
D ---h--0-2-0--------
A --0-2-------2-0-0--
E -------------------


Текст, аккорды и табулатура для песни "Tender", исполняет "Blur".
Используемые в песне аккорды можно найти в разделе Как брать аккорды. Аккорды для шестиструнной гитары. Другие песни можно найти на нашем сайте, воспользовавшись алфавитным указателем вверху страницы.


 
Ошибка в тексте? Выделите ошибку и нажмите Ctrl+Enter