Clean Guitar::2x

G |-5-5-x--3-3-3-x--8-8-x--5-5-5-5-x------
D |-3-3-x--1-1-1-x--6-6-x--5-5-5-5-x------

Wo-hoo

Heavy distortion:4x

G |-5-5-x--3-3-3-x--8-8-x--5-5-5-5-x------
D |-3-3-x--1-1-1-x--6-6-x--5-5-5-5-x------

Clean Guitar:

G |-5-5-x--3-3-3-x--8-8-x--5-5-5-5-x------
D |-3-3-x--1-1-1-x--6-6-x--5-5-5-5-x------

 
I got my head checked
By a jumbo jet
It wasn´t easy but nothing is
No

Heavy distortion:

G |-5-5-x--3-3-3-x--8-8-x--5-5-5-5-x------
D |-3-3-x--1-1-1-x--6-6-x--5-5-5-5-x------

Woo-hoo
When I feel heavy metal
Woo-hoo
And I´m pins and I´m needles
Woo-hoo
Well I lie and I´m easy
All the time but I am never sure
Why I need you
Pleased to meet you

Heavy distortion:2x

Clean Guitar:

I got my head down
When I was young
It´s not my problem
It´s not my problem

Heavy distortion:

Woo-hoo
When I feel heavy metal
Woo-hoo
And I´m pins and I´m needles
Woo-hoo
Well I lie and I´m easy
All the time but I am never sure
Why I need you
Pleased to meet you

Heavy distortion:4x

Yeah Yeah
Yeah Yeah
Yeah Yeah
Oh Yeah


Текст, аккорды и табулатура для песни "Song 2", исполняет "Blur".
Используемые в песне аккорды можно найти в разделе Как брать аккорды. Аккорды для шестиструнной гитары. Другие песни можно найти на нашем сайте, воспользовавшись алфавитным указателем вверху страницы.


 
Ошибка в тексте? Выделите ошибку и нажмите Ctrl+Enter