Tabbed by Lana
I’ve noticed a lot people reckon you have to tune the E to an Eb  but all you 
have to do is play it further down the neck like so:  (this is the way Alex plays 
it if you look closely on the video)

Main Riff:
|-------------------------------------|
|---------------------------------- --|
|--------------------4-4--6--8-8-8-8--|
|--6-6-6-6---4-4-4-4------------------|

Bridge:
|----------------------------------------------------------|
|-----------------------------------------------------7/12-|
|-------------------4-4-4-4-4-4-4-4-/-9-9-9-9-9-9-9-9------|
|---6-6-6-6-6-6-6-6----------------------------------------|
All the time I'm never sure why need you, pleased to meet you.

First Bass Solo                            
|----2----2---------------------|          
|-4----4----4-------------------|          
|----------------0-0-2-4--4-4-4-|          
|-------------------------------|          


Second Bass Solo:
|----2----2/6-------------|          
|-4----4------------------|          
|---------------0-0-2-4---|          
|-------------------------|          

Structure:
Rest for 4 bars (until Wahoo!)
Main Riff x4
Rest for 4 bars (until Wahoo!)
Main Riff x3
Bridge
First Bass Solo x2
Rest for 4 bars (until Wahoo!)
Main Riff x3
Bridge
First Bass Solo x2
Second Bass Solo x2

(On the last note at the end of the song slide up the neck)

That’s it, any comments to [email protected] , Cheers!


Текст, аккорды и табулатура для песни "Song 2", исполняет "Blur".
Используемые в песне аккорды можно найти в разделе Как брать аккорды. Аккорды для шестиструнной гитары. Другие песни можно найти на нашем сайте, воспользовавшись алфавитным указателем вверху страницы.


 
Ошибка в тексте? Выделите ошибку и нажмите Ctrl+Enter