-------------------------------------------------------
#-- File created with Instab - http://www.pconline.com/~smcarey/instab.html
#------------------------------------------------------

Author/Artist: blur
Title: song 2
Transcribed by: Saverain
Email: [email protected]

This is what it sounds like to me and if you don't
 like it
E-mail me
you'll have to find the lyrics somewhere else sorry.
 I are not to good words
This should be right.  I think this is close to right
the verse for the intro it doesn't
 matter to me
I don't own this song I got a piece of it off of the
 internet so it may not be right
v strum down
^strum up
D  TUNING
------|-------------------------------------|---------|----
------|----------------x-x-9-9/11-----------|-x-x-x-x-|-10-
------|-10-10----8-8-8-x-x-8-8/10/12--12-12-|-x-x-x-x-|-10-
------|-10-10----8-8-8-x-x-6-6/8-/10--10-10-|-x-x-x-x-|-10-
------|----------6-6-6-x-x-6-----/10--10-10-|-x-x-x-x-|-8--
------|-------------------------------------|---------|----
        v  v     v v v v ^ v v v  ^   ^  v    v ^ v ^ con  
                    
--------------------------------------------|------------
-10-x-x-8-8--8-x-x-9-9/11-----------x-x-x-x-|-------------
-10-x-x-8-8--8-x-x-8-8/10/12--12-12-x-x-x-x-|-5-5-5-5-3-3-
-10-x-x-8-8--8-x-x-6-6/8-/10--10-10-x-x-x-x-|-3-3-3-3-1-1-
-8--x-x-6-6--6-x-x-6-6/8-/10--10-10-x-x-x-x-|-3-3-3-3-1-1-
--------------------------------------------|-3-3-3-3-1-1-
   ver quik                        chorus>    v ^ continu                
-----------------------|----|-----------------------------
-----------------------|----|-----------------------------
--3-3------------------|----|-5-5-5-5-5-5-5-5-------------
--1-1-6-6-8/10-10-10-0-|-3x-|-3-3-3-3-3-3-3-3-6-6-6-6-6-6-
--1-1-6-6-8/10-10-10-0-|----|-3-3-3-3-3-3-3-3-6-6-6-6-6-6-
--1-1-6-6-8/10-10-10---|----|-3-3-3-3-3-3-3-3-6-6-6-6-6-6-
      v ^ v ^  ^  v  ^        v ^
                                            
-------------------------------------|---------------------
-------------------------------------|---------------------
-----3-3-3-3-3-3-3-3-3-3-3-3-3-3-3-3-|---------------------
-6-0-1-1-1-1-1-1-1-1-1-1-1-1-1-1-1-1-|-3---------3-3-6-6-8-
-6-0-1-1-1-1-1-1-1-1-1-1-1-1-1-1-1-1-|-3-6p3-6p3-3-3-6-6-8-
-6-0-1-1-1-1-1-1-1-1-1-1-1-1-1-1-1-1-|-3-5p3-5p3-3-3-6-6-8-
                                       v v   v   v ^ 
                         
-------------|---|
-------------|---|
-------------|---|
-/10-10-10-0-|2x-|
-/10-10-10-0-|---|
-/10-10-10-0-|---|


Текст, аккорды и табулатура для песни "Song 2", исполняет "Blur".
Используемые в песне аккорды можно найти в разделе Как брать аккорды. Аккорды для шестиструнной гитары. Другие песни можно найти на нашем сайте, воспользовавшись алфавитным указателем вверху страницы.


 
Ошибка в тексте? Выделите ошибку и нажмите Ctrl+Enter