-------------------
  Crazy Beat-Blur
-------------------

Tabbed by: Stedmyster
Email:

Tuning: Standard

This song is very easy to play but it is also a very good song.

Intro (after the drums)
e|---------------------------------------------------------------------------|
B|---------------------------------------------------------------------------|
G|---------------------------------------------------------------------------|
D|-88-7-6-5-5-5-5---------3333333333333--------------------------------------|
A|-88-7-6-5-5-5-5--x3-----3333333333333--------------------------------------|
E|-66-5-4-3-3-3-3---------1111111111111--------------------------------------|

Verse 1
e|---------------------------------------------------------------------------|
B|---------------------------------------------------------------------------|
G|---------------------------------------------------------------------------|
D|-88-7-6-5-5-5-5------------------------------------------------------------|
A|-88-7-6-5-5-5-5------------------------------------------------------------|
E|-66-5-4-3-3-3-3------------------------------------------------------------|
  U got to get it____together, stop shootin at me   

e|---------------------------------------------------------------------------|
B|---------------------------------------------------------------------------|
G|---------------------------------------------------------------------------|
D|-88-7-6-5-5-5-5------------------------------------------------------------|
A|-88-7-6-5-5-5-5------------------------------------------------------------|
E|-66-5-4-3-3-3-3------------------------------------------------------------|
  Ur just a teenage industry

e|---------------------------------------------------------------------------|
B|---------------------------------------------------------------------------|
G|---------------------------------------------------------------------------|
D|-88-7-6-5-5-5-5------------------------------------------------------------|
A|-88-7-6-5-5-5-5------------------------------------------------------------|
E|-66-5-4-3-3-3-3------------------------------------------------------------|
  Why are__the C.I_____A havin fun


e|---------------------------------------------------------------------------|
B|---------------------------------------------------------------------------|
G|---------------------------------------------------------------------------|
D|333333333333---------------------------------------------------------------|
A|111111111111---------------------------------------------------------------|
E|111111111111---------------------------------------------------------------|
  They think ur clever cos u blown up ur lungs 

Chorus
e|---------------------------------------------------------------------------|
B|---------------------------------------------------------------------------|
G|---------------------------------------------------------------------------|
D|-88-7-6-5-5-5-5------------------------------------------------------------|
A|-88-7-6-5-5-5-5------------------------------------------------------------|
E|-66-5-4-3-3-3-3------------------------------------------------------------|
  But i love to hear that crazy beat (Yeah Yeah Yeah Yeah Yeah)
                                    
e|---------------------------------------------------------------------------|
B|---------------------------------------------------------------------------|
G|---------------------------------------------------------------------------|
D|-88-7-6-5-5-5-5------------------------------------------------------------|
A|-88-7-6-5-5-5-5------------------------------------------------------------|
E|-66-5-4-3-3-3-3------------------------------------------------------------|
  Gets the people dancin on there feat (Yeah Yeah Yeah Yeah Yeah)

e|---------------------------------------------------------------------------|
B|---------------------------------------------------------------------------|
G|---------------------------------------------------------------------------|
D|-88-7-6-5-5-5-5------------------------------------------------------------|
A|-88-7-6-5-5-5-5------------------------------------------------------------|
E|-66-5-4-3-3-3-3------------------------------------------------------------|
  And i love to love to live in paradise (Yeah Yeah Yeah Yeah Yeah)

e|---------------------------------------------------------------------------|
B|---------------------------------------------------------------------------|
G|---------------------------------------------------------------------------|
D|---3-----------------------------------------------------------------------|
A|---3-----------------------------------------------------------------------|
E|---1 ----------------------------------------------------------------------|
 I love my brothers on a saturday night 

Interlude ( This part is done with a wierd wah wah effect)
e|---------------------------------------------------------------------------|
B|---------------------------------------------------------------------------|
G|---------------------------------------------------------------------------|
D|-88-7-6-5-5-5-5---------3333333333333--------------------------------------|
A|-88-7-6-5-5-5-5--x3-----3333333333333--------------------------------------|
E|-66-5-4-3-3-3-3---------1111111111111--------------------------------------|

e|---------------------------------------------------------------------------|
B|---------------------------------------------------------------------------|
G|---------------------------------------------------------------------------|
D|-88-7-6-5-5-5-5------------------------------------------------------------|
A|-88-7-6-5-5-5-5---x2-------------------------------------------------------|
E|-66-5-4-3-3-3-3------------------------------------------------------------|
   Break Up

Verse 2
e|---------------------------------------------------------------------------|
B|---------------------------------------------------------------------------|
G|---------------------------------------------------------------------------|
D|-88-7-6-5-5-5-5------------------------------------------------------------|
A|-88-7-6-5-5-5-5------------------------------------------------------------|
E|-66-5-4-3-3-3-3------------------------------------------------------------|
  Im on my mobile, im talking to the president

e|---------------------------------------------------------------------------|
B|---------------------------------------------------------------------------|
G|---------------------------------------------------------------------------|
D|-88-7-6-5-5-5-5------------------------------------------------------------|
A|-88-7-6-5-5-5-5------------------------------------------------------------|
E|-66-5-4-3-3-3-3------------------------------------------------------------|
  Im gonna get him for the money ive spent

e|---------------------------------------------------------------------------|
B|---------------------------------------------------------------------------|
G|---------------------------------------------------------------------------|
D|-88-7-6-5-5-5-5------------------------------------------------------------|
A|-88-7-6-5-5-5-5------------------------------------------------------------|
E|-66-5-4-3-3-3-3------------------------------------------------------------|
  Trying to get him to party with me

e|---------------------------------------------------------------------------|
B|---------------------------------------------------------------------------|
G|---------------------------------------------------------------------------|
D|333333333333---------------------------------------------------------------|
A|111111111111---------------------------------------------------------------|
E|111111111111---------------------------------------------------------------|
  I even offered him exctasy

Chorus
e|---------------------------------------------------------------------------|
B|---------------------------------------------------------------------------|
G|---------------------------------------------------------------------------|
D|-88-7-6-5-5-5-5------------------------------------------------------------|
A|-88-7-6-5-5-5-5------------------------------------------------------------|
E|-66-5-4-3-3-3-3------------------------------------------------------------|
  But i love to hear that crazy beat (Yeah Yeah Yeah Yeah Yeah)
                                    
e|---------------------------------------------------------------------------|
B|---------------------------------------------------------------------------|
G|---------------------------------------------------------------------------|
D|-88-7-6-5-5-5-5------------------------------------------------------------|
A|-88-7-6-5-5-5-5------------------------------------------------------------|
E|-66-5-4-3-3-3-3------------------------------------------------------------|
  Gets the people dancin on there feat (Yeah Yeah Yeah Yeah Yeah)

e|---------------------------------------------------------------------------|
B|---------------------------------------------------------------------------|
G|---------------------------------------------------------------------------|
D|-88-7-6-5-5-5-5------------------------------------------------------------|
A|-88-7-6-5-5-5-5------------------------------------------------------------|
E|-66-5-4-3-3-3-3------------------------------------------------------------|
  And i love to love to live in paradise (Yeah Yeah Yeah Yeah Yeah)

e|---------------------------------------------------------------------------|
B|---------------------------------------------------------------------------|
G|---------------------------------------------------------------------------|
D|---3-----------------------------------------------------------------------|
A|---3-----------------------------------------------------------------------|
E|---1 ----------------------------------------------------------------------|
  I love my sister and i love her toight


After the drum bit
e|---------------------------------------------------------------------------|
B|---------------------------------------------------------------------------|
G|---------------------------------------------------------------------------|
D|-88-7-6-5-5-5-5------------------------------------------------------------|
A|-88-7-6-5-5-5-5---x4-------------------------------------------------------|
E|-66-5-4-3-3-3-3------------------------------------------------------------|
   Break Up, Its A Beat!!!!

Chorus
e|---------------------------------------------------------------------------|
B|---------------------------------------------------------------------------|
G|---------------------------------------------------------------------------|
D|-88-7-6-5-5-5-5------------------------------------------------------------|
A|-88-7-6-5-5-5-5------------------------------------------------------------|
E|-66-5-4-3-3-3-3------------------------------------------------------------|
  And i love to hear that crazy beat (Yeah Yeah Yeah Yeah Yeah)
                                    
e|---------------------------------------------------------------------------|
B|---------------------------------------------------------------------------|
G|---------------------------------------------------------------------------|
D|-88-7-6-5-5-5-5------------------------------------------------------------|
A|-88-7-6-5-5-5-5------------------------------------------------------------|
E|-66-5-4-3-3-3-3------------------------------------------------------------|
  Gets the people dancin on there feat (Yeah Yeah Yeah Yeah Yeah)

e|---------------------------------------------------------------------------|
B|---------------------------------------------------------------------------|
G|---------------------------------------------------------------------------|
D|-88-7-6-5-5-5-5------------------------------------------------------------|
A|-88-7-6-5-5-5-5------------------------------------------------------------|
E|-66-5-4-3-3-3-3------------------------------------------------------------|
  And i love to love to live in paradise (Yeah Yeah Yeah Yeah Yeah)

e|---------------------------------------------------------------------------|
B|---------------------------------------------------------------------------|
G|---------------------------------------------------------------------------|
D|---3333333333--------------------------------------------------------------|
A|---3333333333--------------------------------------------------------------|
E|---1111111111--------------------------------------------------------------|
  I love my brothers on a saturday night 


e|---------------------------------------------------------------------------|
B|---------------------------------------------------------------------------|
G|---------------------------------------------------------------------------|
D|-88-7-6-5-5-5-5------------------------------------------------------------|
A|-88-7-6-5-5-5-5------------------------------------------------------------|
E|-66-5-4-3-3-3-3------------------------------------------------------------|
  And i love to hear that crazy beat (Yeah Yeah Yeah Yeah Yeah)
                                    
e|---------------------------------------------------------------------------|
B|---------------------------------------------------------------------------|
G|---------------------------------------------------------------------------|
D|-88-7-6-5-5-5-5------------------------------------------------------------|
A|-88-7-6-5-5-5-5------------------------------------------------------------|
E|-66-5-4-3-3-3-3------------------------------------------------------------|
  Gets the people dancin on there feat (Yeah Yeah Yeah Yeah Yeah)


e|---------------------------------------------------------------------------|
B|---------------------------------------------------------------------------|
G|---------------------------------------------------------------------------|
D|-88-7-6-5-5-5-5------------------------------------------------------------|
A|-88-7-6-5-5-5-5------------------------------------------------------------|
E|-66-5-4-3-3-3-3------------------------------------------------------------|
  Yeah i love to love to live in paradise (Yeah Yeah Yeah Yeah Yeah)

e|---------------------------------------------------------------------------|
B|---------------------------------------------------------------------------|
G|---------------------------------------------------------------------------|
D|---3333333333--------------------------------------------------------------|
A|---3333333333--------------------------------------------------------------|
E|---1111111111--------------------------------------------------------------|
  I love my sister and i love her tonight 


e|---------------------------------------------------------------------------|
B|---------------------------------------------------------------------------|
G|---------------------------------------------------------------------------|
D|-88-7-6-5-5-5-5------------------------------------------------------------|
A|-88-7-6-5-5-5-5------------------------------------------------------------|
E|-66-5-4-3-3-3-3------------------------------------------------------------|
  Oh i love to hear that crazy beat (Yeah Yeah Yeah Yeah Yeah)
                                    
e|---------------------------------------------------------------------------|
B|---------------------------------------------------------------------------|
G|---------------------------------------------------------------------------|
D|-88-7-6-5-5-5-5------------------------------------------------------------|
A|-88-7-6-5-5-5-5---x3-------------------------------------------------------|
E|-66-5-4-3-3-3-3------------------------------------------------------------|
  Yeah yeah yeah yeah yeah yeah yeah yeah (Yeah Yeah Yeah Yeah Yeah)


e|---------------------------------------------------------------------------|
B|---------------------------------------------------------------------------|
G|---------------------------------------------------------------------------|
D|-88-7-6-5-5-5-5------------------------------------------------------------|
A|-88-7-6-5-5-5-5------------------------------------------------------------|
E|-66-5-4-3-3-3-3------------------------------------------------------------|
          (Yeah Yeah Yeah Yeah Yeah)

e|---------------------------------------------------------------------------|
B|---------------------------------------------------------------------------|
G|---------------------------------------------------------------------------|
D|-88-7-6-5-5-5-5------------------------------------------------------------|
A|-88-7-6-5-5-5-5------------------------------------------------------------|
E|-66-5-4-3-3-3-3------------------------------------------------------------|
          (Yeah Yeah Yeah Yeah Yeah)


(Yeah Yeah Yeah Yeah Yeah)
(Yeah Yeah Yeah Yeah Yeah)


| /  slide up
|   slide down
| h  hammer-on
| p  pull-off
| ~  vibrato
| +  harmonic
| x  Mute note
===============================================================================


Текст, аккорды и табулатура для песни "Crazy Beat", исполняет "Blur".
Используемые в песне аккорды можно найти в разделе Как брать аккорды. Аккорды для шестиструнной гитары. Другие песни можно найти на нашем сайте, воспользовавшись алфавитным указателем вверху страницы.


 
Ошибка в тексте? Выделите ошибку и нажмите Ctrl+Enter