E --------------------------------------------------------
B -----------------------------------------7--7-7-5---5-5-
G --8-8--8-9-8--8-9-8--8-9-8-8--5-5--5-5-5----------------
D --9-9--9-9-9--9-9-9--9-9-9-9--7-7--7-7-7----------------
A --------------------------------------------------------
E --------------------------------------------------------

E --------------------------------------------------------------
B --------------------------------------------------------------
G --4-4--4-4-4-4-2-2--2-2-2-2--7-7--7-7-7-7-10-10--10-10-10-10--
D --5-5--5-5-5-5-3-3--3-3-3-3--8-8--8-8-8-8-11-11--11-11-11-11--
A --------------------------------------------------------------
E --------------------------------------------------------------


B 
Do you feel like a chain-store 

Am          E 
Practically floored 

G/D         F 
One of many zeros 

Bb            C# 
Kicked around bored 

B 
Your ears are full but you´re empty 

Am   		 E 
Holding out your heart 

G/D       	    F 
To people who never really 

Bb           A 
Care how you are 
  


           C#m 
So give me coffee and TV 

B    A 
History 

     C#m       	      E 
I´ve seen so much I´m going blind 

        A  		  B 
And I´m brain-dead virtually 

C#m 
Sociability 

   B 	           A 
Is hard enough for me 

C#m 	               E 
Take me away from this big bad world 

       A  	     D 
And be free to marry me 

 	        A 
So we can start over again 
  
 

B 
Do you go to the country 

   Am         E 
It isn´t very far 

G/D  		            F 
There´s people there who´ll hurt you 

Bb	           C# 
Because of who you are 

B 
Your ears are full of their language 

        Am	            E 
There´s wisdom there you´re sure 

G/D	             F 
´Til the words start slurring 

Bb  		       A 
And you can´t find the door 
  
Solo:

   B              A  E  G    F   A#     C#
E -----------------------------------------------------------
B ----------------------17~~-15~~----------------------------
G -16~~------------------------------------------------------
D ------16h18-19--14~~-----------15b17--15-15^---------------
A -----------------------------------------------------------
E -----------------------------------------------------------

   B    A       E         G   F   A#   A
E ---------------------------------------------------------
B --------------------------------------------------17~~~--
G ------9-11-11-9b11-11-9----------------------------------
D -5b7---------------------9~~9~~-12~--14~~---12/14--------
A ---------------------------------------------------------
E ---------------------------------------------------------

Ending:

   B
E -----------------------------
B -----------------------------
G ----------------------------- 
D ----------------------------- 
A -6-7-6-7-9-7-6--6-7-6-7-9-7--
E -----------------------------

D                 A
Aah, we can start over again

D                 A
Aah, we can start over again

D                 A
Aah, we can start over again

D                 A
Aah, we can start over again


Текст, аккорды и табулатура для песни "Coffee & Tv", исполняет "Blur".
Используемые в песне аккорды можно найти в разделе Как брать аккорды. Аккорды для шестиструнной гитары. Другие песни можно найти на нашем сайте, воспользовавшись алфавитным указателем вверху страницы.


 
Ошибка в тексте? Выделите ошибку и нажмите Ctrl+Enter