Blur

LP: 13

( I´m not going to tab every chord strum; you can figure it out listening to the record)

Verse
  B  Repeat this part  (Am)         (E)             G Fmaj7#11
----------------------------------------------------------0---------
-----------------------------------------------------0----0--6---9--
--8--8---8--8b(9)-8-----5-5-x-5-5--9/11--11-x-9--9---4----2--7---10-
--9--9---9--------9-----x-x-x-x-x--x------x-x-x--x---5----3--8---11-
--9--9---9--------9-----3-3-x-3-3--7/9----9-x-7--7---5----3--8---11-
--7--7---7--------7-----5-----5----0----------0------3----1--6---9--
                                                             A#  C#
Repeat then play instead of C#:

-------------4------
--5---5--5---5---5--
--6---4--4h6-4---4h6
--7-----------------
--7-----------------
--5-----------------

Chorus

  C#m  B    (A5)             (C#m)    (E)         (A5)      B5   B
---------------------------------------------------------------------
--9----7-----12-10-9-5--9-9-------9-9-x-------12-12-8-8----------
--9----8-----x---x---x--x---9---11-11-9-9-x-11-11-x--x--x-x-11---8---
--11---9-----9--7--6-2--11--x--x--9-9-x-x--x--9--9--5-5-x----9---
--11---9-----0--------------11--9--9--7-7---9--9--0--0--0-0-9----9---
--9----7--------------------9---9--9--7-----0--0------------7----7---

Repeat and instead of B5 B play barre chords D: 10-x-12-11-10-x
And A: 5-x-7-6-5-x

solo ( not exact)

e---------------------------------------------------------------
B--12   ~   ~~~~~---9--10       ~b------------------------------
G----------------11----------------9       ~~~~~~    ~~~~b //---

e----//13  ~--11------------------------------------------------
B-----------------10--------------------------------------------
G---------------------10    ~~~~  ~~b    (11)~~-----------------

e---------------------------------------------------------------
B---------------------------------------------------------------
G---2b          b      (4)--//7--7-7----12~12~-11~9~--7~~~~~~~~-

e------------------------------------------------------/13~~~~~-
B----------------------------------------------------x/---------
G-4~~~~~~~~~~~~~~~~~~~-7~~~~~~~~~-9~~~~~~~~~~7///--------------

Outro

----------------------------------------------------------------
------------------------------10-----------5--------------------
------------------------------11-----------6--------------------
------------------------------12-----------7--------------------
--6666-7-9-7-6--6667-9-7------x------------x--------------------
------------------------------10-----------5--------------------


Текст, аккорды и табулатура для песни "Coffee & Tv", исполняет "Blur".
Используемые в песне аккорды можно найти в разделе Как брать аккорды. Аккорды для шестиструнной гитары. Другие песни можно найти на нашем сайте, воспользовавшись алфавитным указателем вверху страницы.


 
Ошибка в тексте? Выделите ошибку и нажмите Ctrl+Enter