Main:
 
G--------6-5-4---------------
D--6-4-6--------6-4-6-9-8-7--
A----------------------------
E----------------------------


Verse:

G------------------------------------------------
D-6----6---6-------6---6-6----6---6-------6---6--
A----8---8---8---8---8------8---8---8---8---8----
E------------------------------------------------

G-------------------------------------------------
D--8--6-8-6-8-8--6-8-6-8-6----6---6------6---6-8--
A---------------------------8---8---8--8---8------
E-------------------------------------------------


Chorus:

G------------------ ------------------
D--10-10-10-6-8-6-- 4x --10-10-10-9-8-7-- 2x
A------------------ ------------------
E------------------ ------------------


Текст, аккорды и табулатура для песни "Chinese Bombs", исполняет "Blur".
Используемые в песне аккорды можно найти в разделе Как брать аккорды. Аккорды для шестиструнной гитары. Другие песни можно найти на нашем сайте, воспользовавшись алфавитным указателем вверху страницы.


 
Ошибка в тексте? Выделите ошибку и нажмите Ctrl+Enter