Intro:

E ----------------------2-2-2-2------------------
B -2-2-2-2-2--2-2-2-2---3-3-3-3-3--3-h-p-h-p-----
G -2-2-2-2-2--2-2-2-2---2-2-2-2-2--2--4-2-4-2-5-- 4x
D -2-2-2-2-2--2-2-2-2---0-0-0-0-0--0----------3--
A -0-0-0-0---------------------------------------
E ---------4--4-4-4-4----------------------------


Intro/verse (US version starts here):

E -------------------------h--p--------------------------------------
B ---------14------------14-15-14------------------------------------
G ------14----14------------------14-----------------h--p-----p------
D --------------------14----------------h------12---9-10-9-7-9-7-----
A -11/14-----------11-----------------11-12----------------------10--
E ------------------------------------------10-----------------------


E -------------------------h--p--------------------------------------
B ---------14------------14-15-14------------------------------------
G ------14----14------------------14-----------------h--p-----p------ 5x
D --------------------14----------------h------12---9-10-9-7-9-7-----
A ---12-----------11-----------------11-12----------------------10--
E ------------------------------------------10-----------------------

    A                    (Bass Ab)
The pay-me girl has had enough of the bleeps

       D             C      G
So she takes a bus into the country

A                        (Bass Ab)
Although she got herself rosy cheeks

    D                   C        G
She didn´t leave enough money to pay the rent

    A                        (Bass Ab)
The landlord says that she´s out in a week

D                    C            G
What a shame she was just getting comfy


A                             (Bass Ab)
Now she´s eating chocolate to induce sleep

     D                   C           G
In a chemical world it´s very, very, very cheap

Chorus:

E ------0-----------0--p---------0-------------------------
B ----2---2---2---2---2-0----------------------h-p-h-p-----
G --2-------1-------------2--1-2---1-4-----2--2-4-2-4-2----
D --------------2-----------------------4---------------4--
A ---------------------------------------------------------
E ---------------------------------------------------------

A                      Amaj7
And I don´t know about you


F#m         C#m         Bm        D    F  
But they´re putting the holes in, yes, yes

A                     Amaj7
It´s been a hell of a do

F#m          C#m         Bm        D    F
They´ve been putting the holes in, yes, yes


A                    (Bass Ab)
Peeping Thomas has a very nice view

D                        C   G
Across the street at the exhibitionist

A                  (Bass Ab)
These townies they never speak to you

     D                 C              G
Just stick together so they never get lonely

A                     (Bass Ab)
Feeling lead, feeling quite light-headed

D                   C         G      A
Had to sit down and have some sugary tea

              (Bass Ab)            D
In a chemical world, in a chemical world
              
     C           G
It´s very, very, very cheap


Текст, аккорды и табулатура для песни "Chemical World", исполняет "Blur".
Используемые в песне аккорды можно найти в разделе Как брать аккорды. Аккорды для шестиструнной гитары. Другие песни можно найти на нашем сайте, воспользовавшись алфавитным указателем вверху страницы.


 
Ошибка в тексте? Выделите ошибку и нажмите Ctrl+Enter