standard tuning

chords: Em, Asus2, D, C, C/B, Am, G, B7

intro
e---------------------
B---------------------
G----------0----------         PLAY 3 TIMES THEN...
D------0H2-----2-0----
A---------------------
E---0--------0--------

e---------------------
B---------------------
G------------0--------
D----2-0--------------
A--------0H2----------
E--0------------0-----

VERSE
e-----0-0-0-0-
B-----0-0-0-0-
G-----0-0-0-0-     EM   PLAY TWICE
D---2-2---2---
A---2-2---2---
E---0-0---0---

SAME STRUM PATTERN THROUGH VERSE Em x2, Am x2, C x1, D x1, Em x1
(INTRO IS PLAYED OVER Em AT END OF VERSE SO U CAN PLAY EITHER)

CHORUS
e---0--                          ---0--
B---3--                          ---1--
G---2--  LET RING FOR 1 BAR      ---2--     LET RING FOR 1 BAR
D---0--                          ---0--
A------                          ------
E------                          ------

e-----0-0---0-0---0-0---3-3
B-----1-1---1-1---1-1---0-0
G-----0-0---0-0---2-2---0-0    2 CHORDS IN EACH BAR C, C/B, AM, G
D---2-2---0-0---2-2---0-0--
A---3-3---2-2---0-0---2-2--
E---------------------3-3--

e---3---3-3-3-I---3-3-3--3-3-3-I----------------------------------
B---0---0-0-0-I---0-0-0--0-0-0-I----------------------------------
G---0---0-0-0-I---0-0-0--0-0-0-I---  I THINK THIS CHORD COULD BE A 
D---0-----0---I-----0------0---I---  VARIATION OF D BUT IM NOT SURE
A---2-----2---I-----2------2---I----------------------------------
E---3-----3---I-----3------3---I----------------------------------

----0--0---0-0-0-I---0-0-0--0-0-0-I---2---------------------------
----1--1---1-1-1-I---1-1-1--1-1-1-I---0---------------------------
----0--0---0-0-0-I---0-0-0--0-0-0-I---2---------------------------
----2--2-----2---I-----2------2---I---1---------------------------
----3--3-----3---I-----3------3---I---2---------------------------
-----------------I----------------I-------------------------------

IF ANYBODY CAN HELP ME OUT WITH THE MISSING CHORD ID REALLY APPRECIATE IT

SOLO
e---------------------------------------------------------------------
B----------------------------------------------------1--------------1-
G-------O---0-----O---0-----0---0-----0---0-----2--2-0-----0----0---0-
D---OH2-------0H2-------0H2-------0H2-------OH2--------OH2---0H2------
A----------------------------------------------------3------------3---
E---------0---------0---------0---------0---------0-------------------



Текст, аккорды и табулатура для песни "Marblehead Johnson", исполняет "Bluetones".
Используемые в песне аккорды можно найти в разделе Как брать аккорды. Аккорды для шестиструнной гитары. Другие песни можно найти на нашем сайте, воспользовавшись алфавитным указателем вверху страницы.


 
Ошибка в тексте? Выделите ошибку и нажмите Ctrl+Enter