Blues Traveler, But Anyway.
 Tabbed by Mathias Stefansson, [email protected]
  
Blues traveler
But anyway

Since I couldn't find a tab that sounded correct,
I decided to take matters into my own hands. The solo and the intro are what it
sounds like, and if i'm wrong, well then shit happens.

INTRO

---7-----7-9-7---7---7---7---7-7-5---5---5-5---5-7---7---7---7-7-7-
---7-----7-7-7---9---9---7---7-7-5---5---5-5---5-7---7---7---7-7-7-
---8-----8-8-8---8---8---8---8-8-6---6---6-6---6-8---8---8---8-8-8-
---9-----9-9-9---9---9---9---9-9-7---7---7-7---7-9---9---9---9-9-9-
-------------------------------------------------------------------
-------------------------------------------------------------------



VERSE


---7--7--7--7-----7--7--7-----5--5---5--5--5-----7--7--7--7------
---7--7--7--7-----9--9--9-----5--5---7--7--7-----7--7--7--7------
---8--8--8--8-----9--9--9-----6--6---7--7--7-----8--8--8--8------
---9--9--9--9-----9--9--9-----7--7---7--7--7-----9--9--9--9------
---9--9--9--9-----7--7--7-----7--7---5--5--5-----9--9--9--9------
---7--7--7--7-----------------5--5---------------7--7--7--7------



CHORUS


---5--5--5--5-----7--7--7--7------5--5--5--5-----7--7--7--7------
---5--5--5--5-----7--7--7--7------5--5--5--5-----7--7--7--7------
---6--6--6--6-----8--8--8--8------6--6--6--6-----8--8--8--8------
---7--7--7--7-----9--9--9--9------7--7--7--7-----9--9--9--9------
---7--7--7--7-----9--9--9--9------7--7--7--7-----9--9--9--9------
---5--5--5--5-----7--7--7--7------5--5--5--5-----7--7--7--7------


Solo

------------------------------------------------10--9--7---------
-----------------------------------------------------------------
---9--7-----9--7-----9--7-----9--7-----9--7----------------------
---------9--------9--------9--------9--------9-------------------
-----------------------------------------------------------------
-----------------------------------------------------------------

-----------------------------------------------------------------
-----------------------------------------------------------------
---8b9r8b9r8-----------------------------------------------------
--------------9--7-----------------------7--------7--------7-----
--------------------9--7--9--7--9--7--9-----7--9-----7--9--------
-----------------------------------------------------------------

-----------------------------------------------------------------
-----------------------------------------------------------------
-----------------------------------------------------------------
---------7--------7--------7-----7h9p7h9p7h9p7h9p7h9p------------
---7--9-----7--9-----7--9-----7----------------------------------
-----------------------------------------------------------------

-----------------------------------------------7h9p7h9p7h9p7h9---
-------------------------7h9p7h9p7h9p7h9p7h9p--------------------
---7h9p7h9p7h9p7h9p7h9p------------------------------------------
-----------------------------------------------------------------
-----------------------------------------------------------------
-----------------------------------------------------------------

---p7h9p7h9p7h9p7h9p7h9p7h9p7h9p7h9p7h9p7h9p7h9p7h9p7h9---------
-----------------------------------------------------------------
-----------------------------------------------------------------
-----------------------------------------------------------------
-----------------------------------------------------------------
-----------------------------------------------------------------

Lyrics:

I lied and told her I loved her
she didn't care but anyway
I told her we'd still be friends
and she didn't care but anyway
I tried last week for to call her
she wasn't home but anyway
I think I'll spend my life alone
I really don't care right now but anyway

it's a state of affairs
and a state of emotions
the kind of thing you must
understand
I tell you one thing
you'll tell me another
we walk away
maybe then shake hands

I'm quitting cigarette smoking
it's bad for me but anyway
I don't think the TV was joking
when it told me this but anyway
the newsman said not to sit on
strange toilet seats
it's my life he's trying to save but anyway
I found out that I got eye cancer
too many television waves but anyway

chorus

some day an anser will find us
quite a long shot but anyway
I think the past is behind us
be real confusing if not but anyway
I put all my hope in tomorrow
it's gonna be great I can tell but anyway
I see a new day a dawning
I like to sleep late, oh well, but anyway




That's about it.



 
:: Ultimate Guitar Archive :: 
http://www.ultimate-guitar.com 





Текст, аккорды и табулатура для песни "But Anyway", исполняет "Blues Traveler".
Используемые в песне аккорды можно найти в разделе Как брать аккорды. Аккорды для шестиструнной гитары. Другие песни можно найти на нашем сайте, воспользовавшись алфавитным указателем вверху страницы.


 
Ошибка в тексте? Выделите ошибку и нажмите Ctrl+Enter