#----------------------------------PLEASE NOTE---------------------------------#
#This file is the author's own work and represents their interpretation of the #
#song. You may only use this file for private study, scholarship, or research. #
#------------------------------------------------------------------------------#

Blues Traveler - All for you
http://www.bluestraveler.com/

Tabbed By AcousticTX

Standard E tuning with Capo on I 

Ok folks, this is my first attempt at tabbing. This is a great tune and I
searched hi and low for this song on the net with no luck. So I've decided
to try and figure it out on my own. I suspect the chorus and bridge are not
perfect, but they are close. If you can help it would be greatly appreciated.
Thanks!

All chords are fingered the same,but the name changes because of the Capo.
I will use the standard name for ease of use.

Chords used:
G, Am, D, Em, C



  Intro  
|-3-3----------3-------3-------3-------3--|
|-3----3---------3-------3-------3-----3--|
|-0-------0--------0-------0-------0---0--|
|-0----------0-------0-------0-------0-0--|
|-2------------------------------------2--|
|-3------------------------------------3--|


  Verse 
|--0-0-0-0-0-0-0-2-2-0-2----|
|--1-1-1-1-1-1-1-3-3-3-3----|
|--2-2-2-2-2-2-2-2-2-2-2----|
|--2-2-2-2-2-2-2-0-0-0-0----|
|--0-0-0-0-0-0-0------------|
|---------------------------|


  Pre-Chorus
|-0-0-0-0-0-0-0-0-0-0-0-0--|
|-0-0-0-0-0-0-1-1-1-1-1-1--|
|-0-0-0-0-0-0-2-2-2-2-2-2--|
|-2-2-2-2-2-2-2-2-2-2-2-2--|
|-2-2-2-2-2-2-0-0-0-0-0-0--|
|-0-0-0-0-0-0--------------|

  Chorus
|-3-3--0-0--0-0--2-2--|
|-3-3--0-0--1-1--3-3--|
|-0-0--0-0--2-2--2-2--|
|-0-0--2-2--2-2--0-0--|
|-2-2--2-2--0-0-------|
|-3-3--0-0------------|


  Bridge
|-0-|
|-1-|
|-0-|
|-2-|
|-3-|
|-0-|

*******************************************************************************


Текст, аккорды и табулатура для песни "All For You", исполняет "Blues Traveler".
Используемые в песне аккорды можно найти в разделе Как брать аккорды. Аккорды для шестиструнной гитары. Другие песни можно найти на нашем сайте, воспользовавшись алфавитным указателем вверху страницы.


 
Ошибка в тексте? Выделите ошибку и нажмите Ctrl+Enter