We Gotta Get Out Of This Place
-Blue Oyster Cult
Tabbed by Joey Lombardi ([email protected])

Standard Tuning (G,D,A,E)


Verse

G|------------------------------|
D|---------8-7------------------|
A|----10-------10-8-------------|
E|-8-----8----------------------|

Prechorus variant

G|------------------------------|
D|------------------------------|
A|----10------------------------|
E|-8-----8-8~--6~---------------|

Chorus

G|--------------------------------------------------------|
D|---------------03--------------03-----------------------|
A|-----0000111133------0000----33------0000111133035~~~---|
E|-1111------------1111----3333----1111-------------------|

PostChorus/Guitar Solo

G|-----------------------|
D|-3331111-------25------|
A|--------0111333--------|
E|-----------------------|

Bridge

G|--------------------------------|
D|--------------------------------|
A|-3-3----3-3----3-3----3-3-------|
E|--------------------------------|

End on a C


Текст, аккорды и табулатура для песни "We Gotta Get Out Of This Place", исполняет "Blue Oyster Cult".
Используемые в песне аккорды можно найти в разделе Как брать аккорды. Аккорды для шестиструнной гитары. Другие песни можно найти на нашем сайте, воспользовавшись алфавитным указателем вверху страницы.


 
Ошибка в тексте? Выделите ошибку и нажмите Ctrl+Enter