The Ballad Of Chasey Lain - Bloodhound Gang |
--------------------------------------------

TAB: by Big M
e-mail: [email protected]

Intro
G|-----------------|-----------------|-----------------|----------------|
D|-----------------|-2---X-2---2-2---|-----------------|----------------|
A|-4---X-4---4-4-2-|---------------2-|-0---X-0---0-0-2-|--------------2-|
E|-----------------|-----------------|-----------------|-4--X-4---4-4---|

G|-----------------|-----------------|-----------------|---|
D|-----------------|-2---X-2---2-2---|-----------------|---|
A|-4---X-4---4-4-2-|---------------2-|-0---X-0---0-0-2-|---|
E|-----------------|-----------------|-----------------|-4-|

Fig.1
G|-----------------|
D|---------------2-|
A|-4--X-4--4-4-2---|
E|-----------------|

Verse
G|-----------------|-----------------|-----------------|-----------------|
D|-----------------|-2-2-2-2-2-2-2-2-|-----------------|-----------------|
A|-4-4-4-4-4-4-4-4-|-----------------|-0-0-0-0-0-0-0-0-|-----------------|
E|-----------------|-----------------|-----------------|-4-4-4-4-4-4-4-4-|

G|-----------------|-----------------|-----------------|-----------------|
D|-----------------|-2-2-2-2-2-2-2-2-|-------------2-2-|-------------4-4-|
A|-4-4-4-4-4-4-4-4-|-----------------|-5-5-5-5-4-4-----|-----2-2-6-6-----|
E|-----------------|-----------------|-----------------|-4-4-------------|

Chorus
G|-----------------|-----------------|-----------------|-----------------|
D|-----------------|-2-2-2-2-2-2-2-2-|-----------------|-----------------|
A|-4-4-4-4-4-4-4-4-|-----------------|-0-0-0-0-0-0-0-0-|-----------------|
E|-----------------|-----------------|-----------------|-4-4-4-4-4-4-4-4-|

G|-----------------|---|
D|-----------------|-2-|
A|-4-4-4-4-4-4-4-4-|---|
E|-----------------|---|

Interlude
G|-----------------|-----------------|-----------------|
D|-----------------|-----------------|-----------------|
A|-2-2-2-2-2-2-2-2-|-2-2-2-2-2-2-2-2-|-4-4-4-4-4-4-4-4-|
E|-----------------|-----------------|-----------------|

G|-----------------|-----------------|-----------------|-----------------|
D|-----------------|-----------------|-----------------|-----------------|
A|-----------------|-----------------|-2-2-2-2-2-2-2-2-|-----------------|
E|-0-0-0-0-0-0-0-0-|-0-0-0-0-0-0-0-0-|-----------------|-2-2-2-2-2-2-2-2-|

G|-----------------|-----------------|-----------------|
D|-----------------|-----------------|-----------------|
A|-2-2-2-2-2-2-2-2-|-2-2-2-2-2-2-2-2-|-4-4-4-4-4-4-4-4-|
E|-----------------|-----------------|-----------------|

G|-----------------|-----------------|-----------------|---|
D|-----------------|-----------------|-----------------|---|
A|-----------------|-----------------|-2-2-2-2-2-2-2-2-|---|
E|-0-0-0-0-0-0-0-0-|-0-0-0-0-0-0-0-0-|-----------------|-2-|


----------------
Song structure: |
----------------
Intro     2x
Verse     2x
Chorus    1x
Fig.1     1x
Verse     2x
Chorus    1x
Fig.1     1x
Verse     2x
Chorus    1x
Fig.1     1x
Interlude 1x
Intro     2x


Текст, аккорды и табулатура для песни "The Ballad Of Chasey Lain", исполняет "Bloodhound Gang".
Используемые в песне аккорды можно найти в разделе Как брать аккорды. Аккорды для шестиструнной гитары. Другие песни можно найти на нашем сайте, воспользовавшись алфавитным указателем вверху страницы.


 
Ошибка в тексте? Выделите ошибку и нажмите Ctrl+Enter