The Bad Touch - The Bloodhound Gang

By: Jon Craven ([email protected])
For questions, comments, feedback, an outline of the timing, write the above
address.

Note:
  -Played with a pick.

(4/4)(123 bpm)
Standard tuning

* - note held for an eighth beat
r - eighth rest
h - hammer-on

Intro (bridge): (x2)(0:25)
|--------------10*-*----|---10-10---------------|------15-1512----------|
|10-10-10-1013-------10-|13-------13-r-10-13-12-|--------------15*-*----|
|-----------------------|-----------------------|13-13---------------15-|
|-----------------------|-----------------------|-----------------------|

|------------------------|
|13-15-15-13-----13h15---|
|-------------15---------|
|------------------------|

Verse (chorus/outro): (x4)(0:41)
|--------------------|------------------------|----------------|
|--10---10---10---10-|---13----13----13----13-|--8---8---8---8-|
|--------------------|------------------------|----------------|
|8----8----8----8----|11----11----11----11----|6---6---6---6---|

|----------------|
|--6---6---6---6-|
|----------------|
|4---4---4---4---|

Chorus (x4)
Bridge (x2)
Verse (x4)
Chorus (x4)
Rest for eight measures
Outro (x8)(fades on 8th repeat)


Текст, аккорды и табулатура для песни "The Bad Touch", исполняет "Bloodhound Gang".
Используемые в песне аккорды можно найти в разделе Как брать аккорды. Аккорды для шестиструнной гитары. Другие песни можно найти на нашем сайте, воспользовавшись алфавитным указателем вверху страницы.


 
Ошибка в тексте? Выделите ошибку и нажмите Ctrl+Enter