-----------------------------------------------
KISS ME WHERE IT SMELLS FUNNY - Bloodhound Gang
-----------------------------------------------
 
by: Calum Neil e-mail: [email protected]
 
intro:             X4       ( faster )
e:-----------------------------|-----------------------
B:-----------------------------|-----------------------
G:-----------------------------|-----------------------
D:-----------------------------|-----------------------
A:-----------------------------|----------5------------
E:--0-5-6-7-0-5-6-7------------|-0-5-6-7------7-6-5----
 
bridge:     (x4)
E:------------------------|----------------------
B:------------------------|----------------------
G:------------------------|----------------------
D:------------------------|----------5---5-------
A:--2-2-2-222-2-2-2-2-----|2-2-2-2---3---3-------
E:--0-0-0-000-0-0-0-0-----|0-0-0-0---3---3-------
 
verse:
E:---------------------------|-------------------
B:---------------------------|-------------------
G:---------------------------|-------------4-----
D:-2-2-2-2-2-2-2-2-----------|-2-2-2-2-5---4-----
A:-0-0-0-0-0-0-0-0-----------|-0-0-0-0-5---2-----
E:---------------------------|---------3---------
 
E:---------------------------|-------------------
B:---------------------------|-------------------
G:---------------------------|-------------------
D:--2-2-2-2-2-2-2-2----------|-2-2-2-2-----------
A:--0-0-0-0-0-0-0-0----------|-0-0-0-0-2----0----
E:---------------------------|-----------3----2--
 
ORDER:
intro-----x5
bridge----x4
verse-----x2
intro-----x5
bridge----x4
verse-----x2
intro-----x5

then:
gtr.1                           (PLAY THIS MANY TIMES)
E:-----------------------------------------------------|
B:-----------------------------------------------------|
G:------------------------------7----------------------|
D:--22-----255-----577-----799--7---9------------------|
A:--22-----255-----577-----799--5---9------------------|
E:--00-----033-----355-----577------7------------------|
intro
intro (doubled)


Текст, аккорды и табулатура для песни "Kiss Me Where It Smells Funny", исполняет "Bloodhound Gang".
Используемые в песне аккорды можно найти в разделе Как брать аккорды. Аккорды для шестиструнной гитары. Другие песни можно найти на нашем сайте, воспользовавшись алфавитным указателем вверху страницы.


 
Ошибка в тексте? Выделите ошибку и нажмите Ctrl+Enter