Gtr I (E A D G B E) - 'Lupus Thunder'
 Intro
 Q=190
 E5                 D5
 4/4
 Gtr I
 E E E E E E E E  E E E E E E E E  E E E E E E E E  E E E E E E E E
--------------------------------------------------------------------
--------------------------------------------------------------------
--------------------------------------------------------------------
-9-9-9-9-9-9-9-9--9-9-9-9-9-9-9-9--7-7-7-7-7-7-7-7--7-7-7-7-7-7-7-7-
-7-7-7-7-7-7-7-7--7-7-7-7-7-7-7-7--5-5-5-5-5-5-5-5--5-5-5-5-5-5-5-5-
--------------------------------------------------------------------
 E5                 D5
                        <
 E E E E E E E E  E E E E E E E E  E E E E E E E E  E E E E E E E E
---------------------------------------------------------------------
---------------------------------------------------------------------
---------------------------------------------------------------------
-9-9-9-9-9-9-9-9--9-9-9-9-9-9-9-9--7-7-7-7-7-7-7-7--7-7-7-7-7-7-7-7--
-7-7-7-7-7-7-7-7--7-7-7-7-7-7-7-7--5-5-5-5-5-5-5-5--5-5-5-5-5-5-5-5--
---------------------------------------------------------------------
 Verse
 A5           E5           A5           E5
 E E E E E E E E  E E E E E E E E  E E E E E E E E  E E E E E E E E
---------------------------------------------------------------------
---------------------------------------------------------------------
---------------------------------------------------------------------
------------------9-9-9-9-9-9-9-9-------------------9-9-9-9-9-9-9-9--
-7-7-7-7-7-7-7-7--7-7-7-7-7-7-7-7--7-7-7-7-7-7-7-7--7-7-7-7-7-7-7-7--
-5-5-5-5-5-5-5-5-------------------5-5-5-5-5-5-5-5-------------------
 E5
 E E E E E E E E  E E E E E E E E  E E E E E E E E  E E E E E E E E
---------------------------------------------------------------------
---------------------------------------------------------------------
---------------------------------------------------------------------
---------------------------------------------------------------------
-2-2-2-2-2-2-2-2--2-2-2-2-2-2-2-2--2-2-2-2-2-2-2-2--2-2-2-2-2-2-2-2--
-0-0-0-0-0-0-0-0--0-0-0-0-0-0-0-0--0-0-0-0-0-0-0-0--0-0-0-0-0-0-0-0--
  Chorus
   Slightly Faster Q=200
   E5  B5  A5     G#5
   Q.  Q.  Q   +E Q.  Q E E
--------------------------------
o-------------------------------
--------------------------------
--9-----------------------------
o-7----9----7---(7)-6----4--2---
-------7----5---(5)-4----2--0---
 A5             B5
 E E  E  E E E  E  E   E E  E  E E E  E  E
-----------------------------------------------------------
----------------------------------------------------------o
-----------------------------------------------------------
-2-(x)-(x)-(x)-2-(x)-(x)-(x)--4-(x)-(x)-(x)-4-(x)-(x)-(x)--
-0-(x)-(x)-(x)-0-(x)-(x)-(x)--2-(x)-(x)-(x)-2-(x)-(x)-(x)-o
-----------------------------------------------------------
 Q=190
 A5           D5      E5           D5E5
 E E E E E E E E  E E E E E E E E  E E E E E E E E   E E E E E E E E
-----------------------------------------------------------------------
---------------------------------------------------o------------------o
-----------------------------------------------------------------------
------------------7-7-7-7-7-7-7-7--7-9-9-9-9-9-9-9---7S9-9-9-9-9-9-9---
-7-7-7-7-7-7-7-7--5-5-5-5-5-5-5-5--5-7-7-7-7-7-7-7-o-5S7-7-7-7-7-7-7--o
-5-5-5-5-5-5-5-5-------------------------------------------------------
              Verse 2
 G5    A5     D5E5
 E E E E E E E E  E E E E E E E E   E E E E E E E E  E E E E E E E E
----------------------------------------------------------------------
----------------------------------o-----------------------------------
----------------------------------------------------------------------
------------------7-9-9-9-9-9-9-9---9-9-9-9-9-9-9-9--9-9-9-9-9-9-9-9--
-5-5-5-5-7-7-7-7--5-7-7-7-7-7-7-7-o-7-7-7-7-7-7-7-7--7-7-7-7-7-7-7-7--
-3-3-3-3-5-5-5-5------------------------------------------------------
 D5            A5           E5
 E E E E E E E E  E E E E E E E E   E E E E E E E E  E E E E E E E E
----------------------------------------------------------------------
----------------------------------o-----------------------------------
----------------------------------------------------------------------
-7-7-7-7-7-7-7-7--7-7-7-7-7-7-7-7--------------------9-9-9-9-9-9-9-9--
-5-5-5-5-5-5-5-5--5-5-5-5-5-5-5-5-o-7-7-7-7-7-7-7-7--7-7-7-7-7-7-7-7--
------------------------------------5-5-5-5-5-5-5-5-------------------
             Pre-Chorus
 A5           E5           E5
 E E E E E E E E  E E E E E E E E  E E E E E E E E  E E E E E E E E
---------------------------------------------------------------------
---------------------------------------------------------------------
---------------------------------------------------------------------
------------------9-9-9-9-9-9-9-9------------------------------------
-7-7-7-7-7-7-7-7--7-7-7-7-7-7-7-7--2-2-2-2-2-2-2-2--2-2-2-2-2-2-2-2--
-5-5-5-5-5-5-5-5-------------------0-0-0-0-0-0-0-0--0-0-0-0-0-0-0-0--
              Chorus
            Again, Faster Q=200
               E5  B5  A5     G#5 F#5E5
 E E E E E E E E  E E E E E E E E   Q.  Q.  Q   +E Q.  Q E E
-------------------------------------------------------------------
----------------------------------o--------------------------------
-------------------------------------------------------------------
------------------------------------9------------------------------
-2-2-2-2-2-2-2-2--2-2-2-2-2-2-2-2-o-7----9----7---(7)-6----4--2----
-0-0-0-0-0-0-0-0--0-0-0-0-0-0-0-0--------7----5---(5)-4----2--0----
 A5             B5
 E E  E  E E E  E  E   E E  E  E E E  E  E
-----------------------------------------------------------
----------------------------------------------------------o
-----------------------------------------------------------
-2-(x)-(x)-(x)-2-(x)-(x)-(x)--4-(x)-(x)-(x)-4-(x)-(x)-(x)--
-0-(x)-(x)-(x)-0-(x)-(x)-(x)--2-(x)-(x)-(x)-2-(x)-(x)-(x)-o
-----------------------------------------------------------
 Q=190
 A5           D5           E5
 E E E E E E E E  E E E E E E E E  E E E E E E E E
-----------------------------------------------------
-----------------------------------------------------
-----------------------------------------------------
------------------7-7-7-7-7-7-7-7--9-9-9-9-9-9-9-9---
-7-7-7-7-7-7-7-7--5-5-5-5-5-5-5-5--7-7-7-7-7-7-7-7---
-5-5-5-5-5-5-5-5-------------------------------------
         Break K! I! D! S!
       E5
          PM   PM     PM   PM
 W        E E E E E E E E  E E E E E E E E
---------------------------------------------
----------o----------------------------------
---------------------------------------------
------------x-x-9-9-x-x-9-9--x-x-9-9-x-x-9-9-
----------o-x-x-7-7-x-x-7-7--x-x-7-7-x-x-7-7-
---------------------------------------------
    D5                A5           E5
 PM   PM     PM   PM
 E E E E E E E E  E E E E E E E E   E E E E E E E E  E E E E E E E E
----------------------------------------------------------------------
----------------------------------o-----------------------------------
----------------------------------------------------------------------
-x-x-7-7-x-x-7-7--x-x-7-7-x-x-7-7--------------------9-9-9-9-9-9-9-9--
-x-x-5-5-x-x-5-5--x-x-5-5-x-x-5-5-o-7-7-7-7-7-7-7-7--7-7-7-7-7-7-7-7--
------------------------------------5-5-5-5-5-5-5-5-------------------
             Pre-Chorus
 A5           E5           E5
 E E E E E E E E  E E E E E E E E  E E E E E E E E  E E E E E E E E
---------------------------------------------------------------------
---------------------------------------------------------------------
---------------------------------------------------------------------
------------------9-9-9-9-9-9-9-9------------------------------------
-7-7-7-7-7-7-7-7--7-7-7-7-7-7-7-7--2-2-2-2-2-2-2-2--2-2-2-2-2-2-2-2--
-5-5-5-5-5-5-5-5-------------------0-0-0-0-0-0-0-0--0-0-0-0-0-0-0-0--
              Chorus
               E5  B5  A5     G#5 F#5E5
 E E E E E E E E  E E E E E E E E   Q.  Q.  Q   +E Q.  Q E E
-------------------------------------------------------------------
----------------------------------o--------------------------------
-------------------------------------------------------------------
------------------------------------9------------------------------
-2-2-2-2-2-2-2-2--2-2-2-2-2-2-2-2-o-7----9----7---(7)-6----4--2----
-0-0-0-0-0-0-0-0--0-0-0-0-0-0-0-0--------7----5---(5)-4----2--0----
 A5             B5
 E E  E  E E E  E  E   E E  E  E E E  E  E
-----------------------------------------------------------
----------------------------------------------------------o
-----------------------------------------------------------
-2-(x)-(x)-(x)-2-(x)-(x)-(x)--4-(x)-(x)-(x)-4-(x)-(x)-(x)--
-0-(x)-(x)-(x)-0-(x)-(x)-(x)--2-(x)-(x)-(x)-2-(x)-(x)-(x)-o
-----------------------------------------------------------
 Outro
 A5           D5
 E E E E E E E E  E E E E E E E E
-----------------------------------
-----------------------------------
-----------------------------------
------------------7-7-7-7-7-7-7-7--
-7-7-7-7-7-7-7-7--5-5-5-5-5-5-5-5--
-5-5-5-5-5-5-5-5-------------------
 D5E5         D5E5         A5           B5
 E E E E E E E E  E E E E E E E E  E E E E E E E E  E E E E E E E E
---------------------------------------------------------------------
---------------------------------------------------------------------
---------------------------------------------------------------------
-7-9-9-9-9-9-9-9--7S9-9-9-9-9-9-9------------------------------------
-5-7-7-7-7-7-7-7--5S7-7-7-7-7-7-7--7-7-7-7-7-7-7-7--9-9-9-9-9-9-9-9--
-----------------------------------5-5-5-5-5-5-5-5--7-7-7-7-7-7-7-7--
 E E E E E E E E  E E E E E E E E  E E E E E E E E  E E E E E E E E
---------------------------------------------------------------------
---------------------------------------------------------------------
---------------------------------------------------------------------
---------------------------------------------------------------------
-7-7-7-7-7-7-7-7--9-9-9-9-9-9-9-9--7-7-7-7-7-7-7-7--9-9-9-9-9-9-9-9--
-5-5-5-5-5-5-5-5--7-7-7-7-7-7-7-7--5-5-5-5-5-5-5-5--7-7-7-7-7-7-7-7--
 E5
 E E E E H    W       W
------------------------------
------------------------------
------------------------------
-9-9-9-9----------------------
-7-7-7-7----------------------
------------------------------

Duration Legend
---------------
W - whole; H - half; Q - quarter; E - 8th; S - 16th; T - 32nd; X - 64th; a - acciaccatura
+ - note tied to previous; . - note dotted; .. - note double dotted
Uncapitalized letters represent notes that are staccato (1/2 duration)
Irregular groupings are notated above the duration line
Duration letters will always appear directly above the note/fret number it represents the
duration for. Duration letters with no fret number below them represent rests. Multi-
bar rests are notated in the form Wxn, where n is the number of bars to rest for. Low
melody durations appear below the staff

Tablature Legend
----------------
h  - hammer-on
p  - pull-off
b  - bend
pb - pre-bend
r  - bend release (if no number after the r, then release immediately)
/ - slide into or out of (from/to "nowhere")
s  - legato slide
S  - shift slide
 - natural harmonic
{n} - artificial harmonic
n(n) - tapped harmonic
 ~  - vibrato
 tr - trill
 T  - tap
 TP - trem. picking
 PM - palm muting
/ - tremolo bar dip; n = amount to dip
 - tremolo bar down
 n/ - tremolo bar up
/n - tremolo bar inverted dip
 =  - hold bend; also acts as connecting device for hammers/pulls
  - volume swell (louder/softer)
 x  - on rhythm slash represents muted slash
 o  - on rhythm slash represents single note slash

Misc Legend
-----------
   - bar
  - double bar
 o - repeat start
 o - repeat end
  - double bar (ending)
 : - bar (freetime)
 $ - Segno
 & - Coda
Tempo markers - = BPM(8/16=s8/s16), where s8 = swing 8ths, s16 = swing 16ths


Текст, аккорды и табулатура для песни "K.I.D.S. Incorporated", исполняет "Bloodhound Gang".
Используемые в песне аккорды можно найти в разделе Как брать аккорды. Аккорды для шестиструнной гитары. Другие песни можно найти на нашем сайте, воспользовавшись алфавитным указателем вверху страницы.


 
Ошибка в тексте? Выделите ошибку и нажмите Ctrl+Enter