Intro:
-----------|
-----------|
-----------|
---4-4-----|
---4-4-----|
---2-2-----|
--------------------------------|-----------------------------|
--------------------------------|-----------------------------|
-----------------4-4-4--4-44-4-4|-----------------------------|
2-2-2--2-22-2-2--4-4-4--4-44-4-4|-6--7-7---6--7-7---6--7-7--4-|
2-2-2--2-22-2-2--2-2-2--2-22-2-2|-6--7-7---6--7-7---6--7-7--4-|
0-0-0--0-00-0-0-----------------|-4--5-5---4--5-5---4--5-5--2-|
                                                             x2
Verse(басуха):
------------------------------------------------------------|
------------------------------------------------------------|
----------4-4--2-2-2-22-2-------------------------------4-4-|x2
-0-0-0-00------------------4-5-5--4-5-5--4-5-5--4-5-5--2----|
Приглушая:
---------------------------------| ---------------------------|
---------------------------------| ---------------------------|
-----------------4-4-4--4-44-4-4-| ---------------------------|
2-2-2--2-22-2-2--4-4-4--4-44-4-4-| -6--7-7---6--7-7---6--7-7-4|
2-2-2--2-22-2-2--2-2-2--2-22-2-2-| -6--7-7---6--7-7---6--7-7-4|
0-0-0--0-00-0-0------------------| -4--5-5---4--5-5---4--5-5-2|
                                                             x2
Pre-chorus
--------------|
--------------|
------6--4----|
---7--6--4----| x4
---7--4--2----|
---5----------|
Chorus:
---------------------------------|----------------------------|
---------------------------------|----------------------------|
------------------4-4-4--4-44-4-4|----------------------------|
-2-2-2--2-22-2-2--4-4-4--4-44-4-4|-6--7-7---6--7-7---6--7-7--4|
-2-2-2--2-22-2-2--2-2-2--2-22-2-2|-6--7-7---6--7-7---6--7-7--4|
-0-0-0--0-00-0-0-----------------|-4--5-5---4--5-5---4--5-5--2|
Interlude:
---------------------------------|----------------------------|
---------------------------------|----------------------------|
------------------4-4-4--4-44-4-4|------6--------6--------6--4|
-2-2-2--2-22-2-2--4-4-4--4-44-4-4|-6--7-6---6--7-6---6--7-6--4|
-2-2-2--2-22-2-2--2-2-2--2-22-2-2|-6--7-4---6--7-4---6--7-4--2|
-0-0-0--0-00-0-0-----------------|-4--5-----4--5-----4--5-----|


Текст, аккорды и табулатура для песни "Going Nowhere Slow", исполняет "Bloodhound Gang".
Используемые в песне аккорды можно найти в разделе Как брать аккорды. Аккорды для шестиструнной гитары. Другие песни можно найти на нашем сайте, воспользовавшись алфавитным указателем вверху страницы.


 
Ошибка в тексте? Выделите ошибку и нажмите Ctrl+Enter