Подбор не мой, чей не помню к сожалению…
Bass plays Bass Fig. 1
Gtr. 2 plays Rhy. fill 1
Gtr. 1 (clean)

E-------------------------------------------------------------------------
B-------------------------------------------------------------------------
G-------------------------------------------------------------------------
D--------------------------------------------8--8--5----------------------
A-------6-8-6---6--8--6-----65/6--------------8-----6--8--6-----6h8------
E--8-8--------8----------8----------6-------------8------------8----------


Fig 2: (0:41, 1:59) Strum each chord 5 times each. Listen to the timing 
and you should get it. 
Bass plays Bass Fig. 1 twice
Gtr. 1 (Clean)

^= Gtrs. 2 & 3 play Rhy. Fill 2 on repeat
E----------------------------
B----------------------------
G-----------------------^----
D--5--8--------5--8---4--6---
A--3--6--8--6--3--6----------
E--------6--4----------6--4--


Fig 3: (1:12, 2:30)
Gtr. 2 plays Rhy. Fill 1
(Palm mute all) Gtr 3 (w/Dist.)
Bass plays Bass Fig. 1 twice
Gtr. 1

E-------------------------------------------------------------------------------
B-------------------------------------------------------------------------------
G-------------------------------------------------------------------------------
D--10--10--13--10--10--10--13--10--10--10--13--10--10--10--13--10--8--8--13--
A-------------------------------------------------------------------------------
E-------------------------------------------------------------------------------

E-------------------------------------------------------------------------------


B-------------------------------------------------------------------------------

G-------------------------------------------------------------------------------
D--8--8--8--13--8--8--8--13--8--8--8--13--8--8--8--12--8--8--8--12--8--8--8--12-
A-------------------------------------------------------------------------------
E-------------------------------------------------------------------------------

E-------------------------------------------------------------------------------
B-------------------------------------------------------------------------------
G-------------------------8--8--------8--8--------8--8--------8--8--------------
D--8--8--8--12--8--6--6--------6--6--------6--6--------6--6--------------------
A-------------------------------------------------------------------------------
E-------------------------------------------------------------------------------



Fig 4: (1:28, 2:46)
Bass plays Rhy. Fill 1
Gtr. 2 plays Rhy. Fill 1
Gtr. 3 plays Fig. 3
Gtr. 4 (w/dist.)

E-------------------------------------------------------------------------------
B-------------------------------------------------------------------------------
G--12------12--12--13--13--12--13--12----------12--12--13---13--12--13--12------
D------10--------------------------------10--8----------------------------------
A--10------10--10--11--11--10--11--10----------10--10--11---11--10--11--10------
E-------8---------------------------------8--6----------------------------------

E--------------------------------------------------------------
B--------------------------------------------------------------
G--15------12--12--13--13--12--13--12--8--8--8--8--108/10-----
D-------8------------------------------------------------------
A--13------10--10--11--11--10--11--10--6--6--6--6---86/8------
E-------6------------------------------------------------------


Fig. 5 (3:02)
(Palm muted)Gtr. 3 (w/dist. & flanger effect)

E-------------------------------------------------------------------------------
B-------------------------------------------------------------------------------
G-------------------------------------------------------------------------------
D--10--10--13--10--10--10--13--10--10--10--13--10--10--10--13--10--8--8--13--
A-------------------------------------------------------------------------------
E-------------------------------------------------------------------------------

E-------------------------------------------------------------------------------
B-------------------------------------------------------------------------------
G-------------------------------------------------------------------------------
D--8--8--8--13--8--8--8--13--8--8--8--13--8--8--8--12--8--8--8--12--8--8--8--12-
A-------------------------------------------------------------------------------
E-------------------------------------------------------------------------------

^=Gtr. 2 plays Rhy. Fill 2 on repeat 
E-----------------------------------------------------------------
B-----------------------------------------------------------------
G--------------------------8-----------8----------8----------8----
D--8--8--8--12-^-8--6--6-----6--6--6----6--6--6----6--6--6---6----
A-----------------------------------------------------------------
E-----------------------------------------------------------------


E-------------------------------------------------------------------------------
B-------------------------------------------------------------------------------
G-------------------------------------------------------------------------------
D--10--10--13--10--10--10--13--10--10--10--13--10--10--10--13--10--8--8--13-----
A-------------------------------------------------------------------------------
E-------------------------------------------------------------------------------

Fig. 5 (3:17)
Gtr. 2 plays Rhy. Fill 1
Gtr. 3 plays Fig 4
Bass plays Bass Fig. 1

Fig 6 (3:33)
Gtr. 2 plays Rhy. Fill 1
Gtr. 3 plays Fig 3
Gtr. 4 plays Fig 4
Bass plays Bass Fig 1


Guitar:

Rhy. Fill 1 (0:25, 1:12, 1:28, 2:30, 2:46, 3:17, 3:33)
Gtr. 2 (w/dist) Let the chords ring.

E--------------
B--------------
G--3--8--------
D--5--8--8--6--
A--3--6--8--6--
E--------6--4--


Rhy. Fill 2 (1:10, 2:28, 3:15)
Gtr. 2 hold G#5
Gtr. 3 (Palm Mute All)

E--------------------------------------------------
B--------------------------------------------------
G--------------------------------------------------
D--------8--8--------8--8-------8--8--------8--8--
A--6--6--------6--6--------6--6-------6--6--------
E--------------------------------------------------


Текст, аккорды и табулатура для песни "Bad Touch", исполняет "Bloodhound Gang".
Используемые в песне аккорды можно найти в разделе Как брать аккорды. Аккорды для шестиструнной гитары. Другие песни можно найти на нашем сайте, воспользовавшись алфавитным указателем вверху страницы.


 
Ошибка в тексте? Выделите ошибку и нажмите Ctrl+Enter