Band: Bloodbath
Song: Soul Collector

Tabber: John Cukras
Email: [email protected]

Tuning: B E A D F# B

(Put in normal, easier to read)

Riff 1: Rythym           Lead
E--------------|------------------------------------------------------------------------------------------------------------------------------------------
B--------------|-12-10-9-10--12-10-9-10------------------12-10-9-10--12-10-9-10---------------------12-10-9-10--12-10-9-10----------------12-10-9-10------
G--------------|-------------------------10-9------------------------------------10-9---------------------------------------10-9----------------------10-9
D-2------------|-------------------------------10-9-9----------------------------------10-9-7-9-7--------------------------------10-9-9-------------------
A-2--7--5------|------------------------------------------------------------------------------------------------------------------------------------------
E-0--5--3------|------------------------------------------------------------------------------------------------------------------------------------------

Riff 2: This was rather difficult to hear.
E----------------------------------------
B----------------------------------------
G----------------------------------------
D-2222-----2222--------------------------
A-2222-7/5-2222-9/7----------------------
E-0000-5/3-0000-7/5- x's 4 then 232323232 x's 2

Riff 3: Speed pick.
E-----------------------------------------------------------------------
B-----------------------------------------------------------------------
G-9---------------------------12----------------------------------------
D---7-6--------------------------11-10-9-------------------------------2
A----------------------------------------9-10-11-10-9  x's 4-------9-8-2
E--------7676767676  x's 8-----------------------------------------7-6-0

Riff 4:
E--------------------------------------------
B--------------------------------------------
G--------------------------------------------
D-------------------------------2------------
A-9-7-5/7/5-5/4----9-7-5/7/5----2------------
E-7-5-3/5/3-3/2-00-7-5-3/5/3-00-0 x's 5 -0000
pm              ..           ..          ....

Riff 1

Riff 2 x's 2

Riff 5: Rythym                           Lead
E------------------------------------|-15-14-13-----------------------
B------------------------------------|----------15-14-13-12--9--------
G------------------------------------|--------------------------10-9-7
D----------------------9-10-9--------|--------------------------------
A--------------9-11-12---------------|--------------------------------
E-0-0-0-0-0-0------------------x's 8-|--------------------------------
pm. . . . . .

Riff 2 x's 2

Riff 3 (First half x's 4)

Riff 1

Outro:
E----------------
B----------------
G----------------
D-------------2-2
A-9/8/7/6-5-5-2-2
E-7/6/5/4-3-3-0-0


Текст, аккорды и табулатура для песни "Soul Collector", исполняет "Bloodbath".
Используемые в песне аккорды можно найти в разделе Как брать аккорды. Аккорды для шестиструнной гитары. Другие песни можно найти на нашем сайте, воспользовавшись алфавитным указателем вверху страницы.


Слушать онлайн Bloodbath


Jerry VayneBloodbath на Яндекс.Музыке


 
Ошибка в тексте? Выделите ошибку и нажмите Ctrl+Enter