Band: Bloodbath
Song: Furnace Funeral

Tabber: John Cukras
Email: [email protected]

Tuning: B E A D F# B

Written in standard.

Riff 1:
E--------------------------------------------------------
B--------------------------------------------------------
G--------------------------------------------------------
D--------------------------------------------------------
A-0-4-0-55-77-0-4-0--9-7-------0-4-0-55-77-0-4-0--5-7----
E-0-2-0-33-55-0-2-0------9-7---0-2-0-33-55-0-2-0------5-7  x's 4
pm.           .                .           .

Riff 2:    Part A              |   Part B
E------------------------------|--------------------------
B------------------------------|--------------------------
G------------------------------|--------------------------
D------------------------------|--------------------------
A----------9-8-7-5-7-5-7-------|----------5/7/9/11-7------
E-00000000----------------x's 2|-00000000-3/5/7/9--5 x's 3  Then A once, B x's 3, A once
pm........                       ........

Riff 3: Speed Pick = *.  Part A        |  Part B
E--------------------------------------|------------------------
B--------------------------------------|------------------------
G--------------------------------------|------------------------
D--------------------------------------|------------------------
A---4---5------------------------------|---9*--3*---------------
E-0-2-0-3--8*-10*--6*-8*--4*-6*  x's 6-|-----------1*--5*  x's 2  Then Part A x's 4, B x's 2
pm.   .

Riff 4:
E-----------------------
B-----------------------
G-----------------------
D-7-5----4--------------
A-5-3----2-----3-4-3----
E-----00---3-4-------4-3  x's 8
pm    ..   . . . . . . .

Riff 1 x's 4

Riff 2 B x's 3, A once, B x's 3, A once

Riff 3 A x's 6, B x's 2, A x's 4, B x's 2

Riff 5: Under Keyboard Interlude.
E----------------------------------------------------------------------
B----------------------------------------------------------------------
G----------------------------------------------------------------------
D----------2--------2--------2--------2----------2-----------2---------
A-4-----4--2--5--4--2--5--4--2--5--4--2--5--4----2--4--5--4--2--4--5--4
E-2-----2--0--3--2--0--3--2--0--3--2--0--3--2----0--2--3--2--0--2--3--2

Riff 3 A x's 6, B x's 2

End:
E--------
B--------
G--------
D--------
A---4---5
E-0-2-0-3
pm.   .


Текст, аккорды и табулатура для песни "Furnace Funeral", исполняет "Bloodbath".
Используемые в песне аккорды можно найти в разделе Как брать аккорды. Аккорды для шестиструнной гитары. Другие песни можно найти на нашем сайте, воспользовавшись алфавитным указателем вверху страницы.


 
Ошибка в тексте? Выделите ошибку и нажмите Ctrl+Enter