http://bloodbath.biz


BLOODBATH - BATHE IN BLOOD
transcribed by Jon (YourDeadGroom)
version 1.0

Notes: This is notated in E to make reading it less confusing, but each
string should be tuned down to: (lowest to highest) B, E, A, D, F#, B.
Notes with a '*' next to it indicate that it should be speed picked.
'h' = hammer on, 'p' = pull off.
'tr' = trill. Rapid series of pull-offs & hammer-ons between the notes
indicated, starting with the one in '()'.
'/' = slide up, '' = slide down.
Spacing and barlines are a rough approximation of rhythm only.
Riffs are only indicated the first time they are played, it's up to you to
figure out where they may get repeated.
The use of '||' indicates the end of a riff/section.

0:01
E--------------------------------|-------------------------------|
B--------------------------------|-------------------------------|
G--------------------------------|-------------------------------|
D--------------------------------|------------------7-----7-8-5--|
A-2-2--2-2-2-2-2---------3-4-6-7-|-2-2--2-2-2-2-2-5---6-5--------|
E-0-0--0-0-0-0-0--3-5--6---------|-0-0--0-0-0-0-0----------------|

E--------------------------------|------------------------------||
B--------------------------------|------------------------------||
G--------------------------------|------------------------------||
D------------------5-2---5-----5-|-2-----------------6-----5----||
A-2-2--2-2-2-2-2-2----3---6-3----|---2--2-2-2-2-2----4-----3----||
E-0-0--0-0-0-0-0-----------------|---0--0-0-0-0-0--0-4---0-3----||


0:23 (rhythm guitar) 0:23 (lead)(speed pick all)
E---------|---------||-------------------|-------------------|
B---------|---------||-------------------|-------------------|
G---------|---------||-------------------|---7-8-----------7-|
D----5--4-|-8-----8-||---9-10---9-10-9---|-------10-9-7-10---|
A-2--3--2-|-6--5--6-||-7------8--------7-|-6-----------------|
E-0-------|----3--6-||-------------------|-------------------|

E-------------------|-------------------||
B-------------------|-------------------||
G-------------------|---7-8--------7----||
D---9-10---9-10-9---|-------10-9-7---10-||
A-7------8--------7-|-6-----------------||
E-------------------|-------------------||


0:27 (speed pick all)
E---------------------------------|---------------------------------||
B---------------------------------|---------------------------------||
G-------------------2-3---------2-|-------------------2-3-------2-0-||
D---4-5---4-5-4---------5-4-2-5---|---4-5---4-5-4---------5-4-2-----||
A-2-----3-------2-1---------------|-2-----3-------2-1---------------||
E---------------------------------|---------------------------------||


1:03 (rhythm) 1:03 (lead)
E------------||----------||
B------------||----------||
G------------||----------||
D-8----------||-8--------||
A-6----------||----------||
E-6----------||----------||


1:07
E-----------------------------|-----------------------|-----------------------------|
B-----------------------------|-----------------------|-----------------------------|
G-----------------------------|-----------------------|-----------------------------|
D-----------------------------|-----------------------|-----------------------------|
A-2--2-2-2--2-2-2--2-2-2--2-2-|-2--2-2-2--2-2-2-7-5---|-8--8-8-8--8-8-8--8-8-8--8-8-|
E-0--0-0-0--0-0-0--0-0-0--0-0-|-0--0-0-0--0-0-0-----7-|-6--6-6-6--6-6-6--6-6-6--6-6-|

E-----------------|-----------------------------|-------------------------|
B-----------------|-----------------------------|-------------------------|
G-----------------|-----------------------------|-------------------------|
D-----------------|-----------------------------|-------------------------|
A-6--6--5---8-5-3-|-2--2-2-2--2-2-2--2-2-2--2-2-|-2--2-2-2--2-2-2-7-5-7-8-|
E-4--4--3---6-3-1-|-0--0-0-0--0-0-0--0-0-0--0-0-|-0--0-0-0--0-0-0---------|

E-----------------------------|--------------||
B-----------------------------|--------------||
G-----------------------------|--------------||
D-----------------------------|--------------||
A-8--8-8-8--8-8-8--8-8-8--8-8-|-5---5---8----||
E-6--6-6-6--6-6-6--6-6-6--6-6-|-3---3---6----||


1:20 (lead)
E-6-7-----------------||
B-----6-7-------------||
G---------6-7---------||
D-------------6-7-----||
A-----------------7--||
E---------------------||


1:34
E------------------------------||
B------------------------------||
G------------------------------||
D-----4-------7-------10-------||
A-2---2---5---5---8---8---11---||
E-0---2---3---5---6---8---9----||


1:42
E-------||
B-------||
G-------||
D-------||
A--12--||
E-------||


1:43 (speed pick all)
E--------------------|------------------------||
B--------------------|------------------------||
G--------------------|------------------------||
D--------7-8-10-11---|----------10-11-13-14---||
A-7-9-10-------------|-10-12-13---------------||
E--------------------|------------------------||


1:51
E------------||
B------------||
G------------||
D------------||
A-2----------||
E-0----------||


1:59 (lead)(harmony on the B string comes in at 2:07)
E-------------------------------------|-------------------------||
B-tr(9)8---tr(8)7--tr(10)9---tr(9)8---|-tr(8)7--tr(7)6--tr(6)5--||
G-tr(10)9--tr(9)8--tr(11)10--tr(10)9--|-tr(9)8--tr(8)7--tr(7)6--||
D-------------------------------------|-------------------------||
A-------------------------------------|-------------------------||
E-------------------------------------|-------------------------||


1:59 (rhythm)
E------------|------------||
B------------|------------||
G------------|------------||
D-9--8--10-9-|-8--12--11--||
A-7--6--8--7-|-6--10--9---||
E-7--6--8--7-|-6--10--9---||


3:12
E----------||
B----------||
G----------||
D----------||
A-5--4--3--||
E-3--2--1--||


Текст, аккорды и табулатура для песни "Bathe In Blood", исполняет "Bloodbath".
Используемые в песне аккорды можно найти в разделе Как брать аккорды. Аккорды для шестиструнной гитары. Другие песни можно найти на нашем сайте, воспользовавшись алфавитным указателем вверху страницы.


Слушать онлайн Beauty Queens and Blood Baths


DopamineBeauty Queens and Blood Baths на Яндекс.Музыке


 
Ошибка в тексте? Выделите ошибку и нажмите Ctrl+Enter