Betty's Psyehdelic Spanish Teacher
Blizzard
Space Orientated  (1990)

Keyboard fade in:
0:18
e|--------------------------------------------------------------------------------|
B|--------------------------------------------------------------------------------|
G|--------------------------------------------------------------------------------|
D|-------------------------------------------------1-2-2-------1-2-2------0-------|
A|2-2-------1-2-2-------1-2-2--------1-2-2-------2-------1-2-2-------1-2-2--4-2-2-|
E|----1-2-2-------1-2-2-------1-2-2--------1-2-2----------------------------------|

----------------------------------------------------------------------------|
----------------------------------------------------------------------------|
----------------------------------------------------------------------------|
----------------------------5-5---4-4---------------------------------------|
------1-2-2-------2-0-----5-----4-----4-----0-1-2-2-------1-2-2-----0-0-1-1-|
1-2-2-------1-2-2-----3-3---------------2-2---------1-2-2-------2-2---------|

Keyboard part
Guitar - drop d tuning - DADGBd
2:46
|----------------------------------------------------------------------------|
|----------------------------------------------------------------------------|
|----2----0------------------------------------------------------------------|
|----0----0-----3----0-------8----7-----------4---5---7---5------------------|
|----------------------------8----7------------------------------------------|
|--0----------0----0-----/8-----------------0---0---0---0--------------------|

|----------------------------------------------12----------------------------|
|---------------------------11----10---------------------------/10--8--------|
|----------------------------------------------------------------------8/10--|
|-----------------------/11----10----------/12-------------------------------|
|----------------------------------------------------------------------------|
|----------------------------------------------------------------------------|

|-------------------------------------------------------------------12--1210|
|----------------------------------------------------------------------------|
|------------------------------------------------------------7-5-/12---------|
|--------------------------------------7-7--6-6--5--5--4---------------------|
|-----5-----7-----8-----7--5--0----------------------------------------------|
|--5--5--5--5--5--5--5--5--5--0-----0----------0-----0-----0-----------------|

|----------------------------------------------------------------------------|
|-----------------------------------8----------------------------------------|
|--------------------------------/7---7--5---5-5-----7--------5h7-5----------|
|-------------------------------------------------/7----------------7--5h7---|
|----------5---7---8---7---5-------------------------------------------------|
|--0-0---5---5---5---5---5---------------------------------------------------|

|----------------------------------------------------------------------------|
|------8------------------8--------------------------------------------------|
|---/7----------7-5---5/7-------------------------------5/7------------------|
|-------------------7--------------------------------------------------------|
|----------------------------------------------------------------------------|
|----------------------------------------------------------------------------|

|----------------------------------------------------------0-----------------|
|--------------------------------------10------------------------------------|
|----------7-7---7--5---------0-----/7---------------------------------------|
|-5---3h5---------------------0--------------------------------------------/7|
|---7----------------------------------------------------------5-------------|
|---------0-0---0-0---------0---------------0--2-2--3-3--5-5/7---7--2-0-----|

|-------------------------7-----75-----------------------7------------------|
|-----------------------------------5-------------5------------5-------------|
|----7--5/7---5-----------------------5-------------5--/7--------5-----------|
|----7--5/7------------/7--------------5-------------------------------------|
|---------------------------------------------7------------------------------|
|----------------------------------------------------------------------------|

|----------------------------------------------------------------------------|
|----------------------------------------------------------------------------|
|-7------------------------------------------0-------------------------------|
|---------------------------------8---7------0-------------------------------|
|---------------------------------8---7--------------------------------------|
|---0-12-10---10--9--9-8--8--7--0---0-----------3--0-------------0-----------|

|-----12-10---10--9--9-8--8--7----8---7------12--------------------12--------|
|------------------------------------------------108------------------------|
|-----------------------------------------------------8/10-------------------|
|------------------------------/8--/7----/12--------------------/12----------|
|---7------------------------------------------------------------------------|
|----------------------------------------------------------------------------|

|----------------------------------------------------------------------------|
|--------------------------------------------------------------------------3-|
|----------------------------------------------------------------------------|
|--5-----0----------------0-0-0-0--0-0--0-0--------5-------------5-----------|
|--5-----0----------------0-0-0-0--0-0--0-0--------5-------------5-----------|
|-/5-3--0------------/5--0-0-0-0--0-0--0-0---3/5--5----------/5-5------/3---|

|-------12--------------------12--------------125----------------------12-|
|------------10-8-----------------------------------------------8------------|
|-----------------8/10------------10/12-10-------------------/7--------------|
|---/12-------------------/12--------------12--------------------------/12---|
|----------------------------------------------------------------------------|
|----------------------------------------------------------------------------|

|----------------------------------------------------------------------------|
|----------6h8---------------------------------------8---8-------------------|
|--5h7-5-------7------7-7---5-------------------7-/7-----7-------------------|
|--------7-------------------------------------------------------------------|
|------------------------------3h5p3h5p3h5p3h5p3-----------------------------|
|------------------------------------------------------------0--2--2-3----4/5|

|----------12-------12-10-9--9-------7-5-3-----7----------------------------7|
|-----------------------------------------------------------------5----------|
|-12-10---------------------------/7-------5/7----------------------5-----/7-|
|-------12----------12-10-9--9-----------------------------------------------|
|---------------------------------------------------------------7------------|
|----------------------------------------------------------------------------|

|----------------------------------------------------------------------------|
|---------------------/8-8-8--7-7-7--6-6-6-5---------------------------------|
|-----------------7---/7-7-7--6-6-6--5-5-5-4---------------------------------|
|--------------/7-------------------------------8---7------------------------|
|-5--3---5--------------------------------------8---7-----------0---2---3---2|
|------3--------------------------------------0---0-----------0---0---0---0--|

|------------12---12-10--10-9--9-8--8-7--------8----7------------------0-----|
|-5--------------------------------------------------------------------------|
|---5------------------------------------------------------------------------|
|---------12--------------------------------/8---/7----------/35-0----------|
|-------------------------------------------------------------------5--------|
|----------------------------------------------------------------------------|

|----------------------------------------------------------------------------|
|----------------------------------------------------------------------------|
|----------------------------------------------------------------7---5-5-5---|
|---0---2---3---2---------------------------------------------/7-------------|
|--------------------------------------3--------5----------------------------|
|-0---0---0---0-----3---0-0--/5h6-7-----5h6h7----5--3--0-------------------|

|-------------------------0----------------------/7------12------------------|
|----------------------------------------------------------------------------|
|------------------------------------------------/7------------7/5--5--------|
|-------------------5/3------------------------------------------------------|
|-3/5--0--3/5-----------5----------------------------------------------------|
|----------------------------------------------------------------------------|

|----------------------------------------------------------------------------|
|----------------------------------------------------------------------------|
|------------------------------------------------7-----------------7---------|
|---------------------------------------------/7----------------/7-----------|
|--5---7---7/8---7-------5---7---7/8---7-------------------------------------|
|--5-5---5-----5---5-----5-5---5-----5---5-----------------------------------|

|----------------------------------------------------------------------------|
|--------------------------------------------/10-10---8--10--6/8-6-----------|
|----7------/7-7---------/7-7--5--7--------------------------------5-7--5/7--|
|-/7-------------/7--5--------------/7-5-------------------------------------|
|----------------------------------------------------------------------------|
|----------------------------------------------------------------------------|

|----------------------------------------------------------------------------|
|--------------------x---------x---------------------------------------------|
|--------------------7---5/7---7------------------------------7--------------|
|-------------------------------------------------------------7--------4-----|
|---------------------------------------------------3-----5------------------|
|----0--3/5--6--7------------------0--2-2--3-3--3/5----/7----------0-------0-|

|-7-7---7-5-----------------------------------------------------12-------12--|
|-------------------------------------6-6--6-6--/6-------------------/10-----|
|------------5/7------/9--9------------------------7----5/7--5/--------------|
|----------------------------------------------------------------------------|
|---------------------------------7------------------------------------------|
|----------------------------------------------------------------------------|

|-----------------------------|--------------------13-----12-----------------|
|-----------------------------|-8/10-6-------------13-----12-----------------|
|--------------------8------7-|--------7-------------------------------------|
|-5-------6-----7----8------7-|----------------------------------------------|
|--------------------8------7-|----------------------------------------------|
|-----0------0----0-----------|-----------------0----------------------------|

5:18
E |---------5-------|---------5-------|---------7-------|---------7-------|
B |-----5-----5---5-|-----5-----5---5-|-----7-----7---7-|-----7-----7---7-|
G |---7---7-----7---|---7---7-----7---|---9---9-----9---|---9---9-----9---|
D |-0-----0---------|-0-----0---------|-0---------------|-0---------------|
A |-----------------|-----------------|-----------------|-----------------|
E |-----------------|-----------------|-----------------|-----------------|

E |---------9-------|---------9-------|---------7-------|---------7-------|
B |-----10----10--10|-----10----10--10|-----8-----8---8-|-----8-----8---8-|
G |---10--------10--|---10--------10--|---7---7-----7---|---7---7-----7---|
D |-0-----0---------|-0-----0---------|-0-----0---------|-0-----0---------|
A |-----------------|-----------------|-----------------|-----------------|
E |-----------------|-----------------|-----------------|-----------------|

E |---------5-------|---------5-------|-|-----2---2--------|-----------------|
B |-----5-----5---5-|-----5-----5---5-|-|-----3---3-----3-2|-3---------------|
G |---7---7-----7---|---7---7-----7---|-|-----4---4-----4-2|-4---------4---4-|
D |-0---------------|-0-----0---------|-|-4---4---4-----4-2|-4--------4-4-4-4|
A |-----------------|-----------------|-|-2----------------|-2-------2---0---|
E |-----------------|-----------------|-|------------------|-----------------|

E |-----------------|-----------------|-----2---2--------|-----------------|
B |-------7-----7---|-----------------|-----3---3-----3-2|-3---------------|
G |-------7-----7---|-----5---5---5555|-----4---4-----4-2|-4---------4---4-|
D |-------7-----7---|-5---5---5---5555|-4---4---4-----4-2|-4--------4-4-4-4|
A |-5---5-------5---|-3-----3---3---33|-2----------------|-2-------2---0---|
E |-3-----------3---|-----------------|------------------|-----------------|

E |-----------------|-----------------|-|-----5-----0---0-|
B |-------7-----7---|-5---------------|-|-------5----3---3|
G |-------7-----7---|-5---------------|-|---7------2---2--|
D |-------7-----7---|-5---------------|-|-0-------0-------|
A |-5---5-------5---|-3---------------|-|-------------4---|
E |-3-----------3---|-----------------|-|-----------------|

6:56
e|--14-12--14-12-14-12-7-7-7h8-7-|
B|--15-13--15-13-15-13-8-8-8---8-|
G|--14-12--14-12-12-10-7-7-7---7-|
D|-------------------------------|
A|-------------------------------|
E|-------------------------------|

7:04
E5                   D5            ...E5
I live my life, the way that I choose
E5                      D5        ...E5
I'm satisfied, I have nothing to lose
G5                        F5                 ...E5
But I dont need nobody, to tell me the reason why
C5               B5              A5(hold)      E5
If I dont ask no questions, then I wont get no lies

E5                    D5            ...E5
Now you give your love, tenderly
E5                   D5       D5     ...E5
In everyway that you move is closer to me
G5                   F5            ...E5
Now I dont ask no favors, I dont know the reason why
C5                   B5            ...A5(hold)      E5
If I love only you baby, I wont need to get high

Dm              Am
Baby, answer my questions
Dm              Am
Baby, dont say goodbye

G5                        F5                 ...E5
But I dont need nobody, to tell me the reason why
C5               B5              A5(hold)      E5
If I dont ask no questions, then I wont get no lies

Dm              Am
Baby, answer my questions
Dm              Am
Baby, dont say goodbye

12:53  -  14:12  Bass run
14:14  -  24:24  Story
24:24  -  26:26  Keyboard part
26:26  -  30:00  Play below

E------------------------------------------------|
B------------------------------------------------|
G--5--------5--------5---------------5---7p5-----|
D--5--------5--------5---------------5---7p5-----|
A----0-0------0-0------0-0-----3-5-----0---------|
E------------------------------------------------|

E--------------------------------------------|
B--------------------------------------------|
G-------7p5-------7p5-----------5-----7------|
D-------7p5-------7p5-----------5-----7------|
A--0-0-------0-0-------0-0-3-5-----0---------|
E--------------------------------------------|

30:00  -  34:00  Play below

E-----------------------------------|
B--8-------6-------5--5h6--6---5----|
G--7-------5-------5--5----5---5----|
D--9-------7-------5--5h7--7---5----|
A-----------------------------------|
E-----------------------------------|

Play twice, with slight variation.

E--3-------1------------------------|
B--1-------1-------5--5h6--6---5----|
G--3-------2-------5--5----5---5----|
D----------3-------5--5h7--7---5----|
A-----------------------------------|
E-----------------------------------|

E-------------------------------------------------------|
B-12---12-13--x--12---12-13-----x-12-x-13-x-12-x-13-----|
G-12---12-12--x--12---12-12-----x-12-x-12-x-12-x-12-----|
D-12---12-14--x--12---12-14-----x-12-x-14-x-12-x-14-----|
A-------------------------------------------------------|
E-------------------------------------------------------|

E------------------------------------------------|
B-12---12-13--x-12-x-13----5---5-6--x-5-x-6------|
G-12---12-12--x-12-x-12----5---5-5--x-5-x-5------|
D-12---12-14--x-12-x-14----5---5-7--x-5-x-7------|
A------------------------------------------------|
E------------------------------------------------|

E--------------------------------------------------------|
B----5-----7-----8------9----------10-------11--11--10---|
G----5-----7-----8------9----------10--10---10--10--10---|
D----5-----7-----8------9----------10--10---12--12--10---|
A--------------------------------------------------------|
E--------------------------------------------------------|

E--------------------------------------------------------|
B--7----8----10--x-11-----5--5-6--x-6-x-6--5------6-5----|
G--7--7-7----10--x-10-----5--5-5--x-5-x-5--5---5--5-5----|
D--7--7-9----10--x-12-----5--5-7--x-7-x-7--5---5--7-5----|
A--------------------------------------------------------|
E--------------------------------------------------------|

E-------------------------------------------------|
B--10-------11--11--10-----12-------13--13--12----|
G--10---10--10--10--10-----12---12--12--12--12----|
D--10---10--12--12--10-----12---12--14--14--12----|
A-------------------------------------------------|
E-------------------------------------------------|

E--------------------------------------------------|
B--5------6-x-6-x-6---5----------------------------|
G--5---5--5-x-5-x-5---5-----/9---9-7-5-7-5---------|
D--5---5--7-x-7-x-7---5-----/9---9-7-5-7-5---------|
A--------------------------------------------------|
E--------------------------------------------------|

E--------------------------8----8----11b13-------|
B--8h11p8--11b13---11-8-11---11------------------|
G------------------------------------------------|
D------------------------------------------------|
A------------------------------------------------|
E------------------------------------------------|

E--------11--13b14--13b14--13b14--13b14--11------|
B--11-13------------------------------------13---|
G------------------------------------------------|
D------------------------------------------------|
A------------------------------------------------|
E------------------------------------------------|

E--13b15--13-11-------------11-------------------|
B---------------13----11----------13-------------|
G------------------------12----12----12/12------|
D------------------------------------------------|
A------------------------------------------------|
E------------------------------------------------|

E---------------------------------------|
B--13-15b17--15-13----13---13/15-17-17--|
G------------------14-------------------|
D---------------------------------------|
A---------------------------------------|
E---------------------------------------|

E-----------------------------------17b19---|
B--17B19-17b19---17-15~~--15-17-------------|
G-------------------------------------------|
D-------------------------------------------|
A-------------------------------------------|
E-------------------------------------------|

E--15-17-15----------------|
B-------------17b18r17p15--|
G--------------------------|
D--------------------------|
A--------------------------|
E--------------------------|

34:00  -  34:24  Keyboard fade out the exact as fade in


Текст, аккорды и табулатура для песни "Bettys Psychedelic Spanish Teacher", исполняет "Blizzard".
Используемые в песне аккорды можно найти в разделе Как брать аккорды. Аккорды для шестиструнной гитары. Другие песни можно найти на нашем сайте, воспользовавшись алфавитным указателем вверху страницы.


 
Ошибка в тексте? Выделите ошибку и нажмите Ctrl+Enter