Blink 182
Voyeur

THIS WAS TABBED BY GAZZA AND YES IT IS 100% RIGHT!
BELIEVE ME!!

Standard tuning (EADGBe)

Intro
------------------------------------------------------------
------------------------------------------------------------
------------------------------------------------------------
-10-x-x-x-x-x-x-x-x-x-x-x-x-x-x-7-x-x-x-x-x-x-3-x-x-x-x-x-x-
-10-x-x-x-x-x-x-x-x-x-x-x-x-x-x-7-x-x-x-x-x-x-3-x-x-x-x-x-x-
-8--x-x-x-x-x-x-x-x-x-x-x-x-x-x-5-x-x-x-x-x-x-1-x-x-x-x-x-x-
Play this twice muting the X's 

Verse
-----------------------------------------------------------
-----------------------------------------------------------
-----------------------------------------------------------
-10-10-10-10-10-10-10-10-10-10-10-10-10-10-10-7-7-7-7-7-7-7
-10-10-10-10-10-10-10-10-10-10-10-10-10-10-10-5-5-5-5-5-5-5
-8--8--8--8--8--8--8--8--8--8--8--8--8--8--8--5-5-5-5-5-5-5

---------------
---------------
---------------
-3-3-3-3-3-3-3-
-3-3-3-3-3-3-3-
-1-1-1-1-1-1-1-
/-------------/

play twice except the second time though repeat the part indicated as main times as needed.

Chorus
-----------------------------------------------
-----------------------------------------------
-----------------------------------------------
-5-5-5-5-5-5-5-3-3-3-3-3-3-2-2-2-2-3-2-2-2-2---
-5-5-5-5-5-5-5-3-3-3-3-3-3-3-3-3-3---3-3-3-3---
-3-3-3-3-3-3-3-1-1-1-1-1-1-------------------3-
                          /-------------------/
                           Palm mute this part

------------------------------------------------------------
------------------------------------------------------------
---------------------------5-5-5-5-5-5----------------------
-5-5-5-5-5-5-5-3-3-3-3-3-3-5-5-5-5-5-5-5-5-5-5-5-5-5-5-5-5-5
-5-5-5-5-5-5-5-3-3-3-3-3-3-3-3-3-3-3-3-5-5-5-5-5-5-5-5-5-5-5
-3-3-3-3-3-3-3-1-1-1-1-1-1-------------3-3-3-3-3-3-3-3-3-3-3

------------------------------------------------------------
------------------------------------------------------------
-----------------------5-5-5-5-5-5-5------------------------
-5-5-5-5-3-3-3-3-3-3-3-5-5-5-5-5-5-5-5-5-5-5-5-5-5-5-5-5-5-5
-5-5-5-5-3-3-3-3-3-3-3-3-3-3-3-3-3-3-5-5-5-5-5-5-5-5-5-5-5-5
-3-3-3-3-1-1-1-1-1-1-1---------------3-3-3-3-3-3-3-3-3-3-3-3

-------------------------------------
-------------------------------------
-------------------------------------
-5-5-3-3-3-3-3-3-2-2-2-2-3-2-2-2-2---
-5-5-3-3-3-3-3-3-3-3-3-3---3-3-3-3---
-3-3-1-1-1-1-1-1-------------------3-
                /--------------------/
              Palm mute this and repeat a few times

Bridge Part
---------------------------------------------------------
---------------------------------------------------------
-5-5-5-5-5-5-5-------------------------------------------
-5-5-5-5-5-5-5-3-3-3-3-3-3-3-5-5-5-5-5-5-5-3-3-3-3-3-3-3-
-3-3-3-3-3-3-3-3-3-3-3-3-3-3-5-5-5-5-5-5-5-3-3-3-3-3-3-3-
---------------1-1-1-1-1-1-1-3-3-3-3-3-3-3-1-1-1-1-1-1-1-
Repeat as many times as needed

Interlude Part
-----------------
-----------------
-----------------
-----------------
-3-2-------------
-----3-3-3-3-3-3-

Outro
-----------------------------
-----------------------------
-----5-5---------5-------5---
-3-3-5-5-5-5-3-3-5-5-3-3-5-5-
-3-3-3-3-5-5-3-3-3-5-3-3-3-5-
-1-1-----3-3-1-1---3-1-1---3-

---------------------
---------------------
---------------------
-2-2-2-2-3-2-2-2-2---
-3-3-3-3---3-3-3-3---
-------------------3-
/--------------------/
Palm mute this and repeat
a few times.

Finish On
---
---
-5-
-5-
-3-
---

You can work out the order yourself.  It is a easy song and Im 100% certain it is correct.  Enjoy playing this great Blink 182 song!  Blink 182 Rule!  I say this all the time, PLEASE DONT PUT OUT DUFF TABS!

EMAIL ME AND TELL ME WHAT YOU THINK ([email protected])

GAZZA


Текст, аккорды и табулатура для песни "Voyeur", исполняет "Blink 182".
Используемые в песне аккорды можно найти в разделе Как брать аккорды. Аккорды для шестиструнной гитары. Другие песни можно найти на нашем сайте, воспользовавшись алфавитным указателем вверху страницы.


Слушать онлайн Voyeur


Blink-182Voyeur на Яндекс.Музыке


 
Ошибка в тексте? Выделите ошибку и нажмите Ctrl+Enter