Author/Artist: Blink 182 
Title: Track 15 
Album: Take Off Your Pants and Jacket 
Transcribed by: Stef Paschek 
Email: [email protected] 

[email protected]------------- 
---------||---3-----3-----3-----3----3-----3/5---2-----2-3---|---------------- 
---------||-2-----2-----2-----2--------0-----------2---------|-x4------------- 
---------||--------------------------0-----0-----2-----2-----|---------------- 
---------||--------------------------------------------------|---------------- 
---------||--------------------------------------------------|---------------- 
 RIFF 1      D   Dsus2   D   Dsus2    G           A                            

---------||-----|------|-----|-------------------|-----|---------------------- 
---------||-3---|------|-3---|-------------------|-2---|-----2---------------- 
---------||---2-|-x4---|---2-|-x4----------------|---2-|-x4------------------- 
---------||-0---|------|-2---|-------------------|-0---|-----0---------------- 
---------||-----|------|-----|-------------------|-----|---------------------- 
---------||-----|------|-----|-------------------|-----|---------------------- 
 RIFF 2   |-------REPEAT x3-------|  Then Play :                               

-----------------------------------------------------------------------|---|-- 
-----------------------------------------------------------------------|-3-|-- 
-----------------------------------------------------------------------|---|-- 
-----------------------------------------------------------------------|-0-|-- 
-----------------------------------------------------------------------|---|-- 
-----------------------------------------------------------------------|---|-- 
 The song goes RIFF 1, RIFF 2, RIFF 1, RIFF 2, then the final note is:         




Текст, аккорды и табулатура для песни "Track 15", исполняет "Blink 182".
Используемые в песне аккорды можно найти в разделе Как брать аккорды. Аккорды для шестиструнной гитары. Другие песни можно найти на нашем сайте, воспользовавшись алфавитным указателем вверху страницы.


Слушать онлайн Aliens Exist


Monsters of RockAliens Exist на Яндекс.Музыке


 
Ошибка в тексте? Выделите ошибку и нажмите Ctrl+Enter