Привет, Девушки, это опять Я!!!
Ну чо, играем BLINK182
THe rock show
Пишу как играет мой братан TOM

e|---------------------
 |---------------------
 |---------------------
 |-----2-2-2-0-0-------
 |--000---------4-0-2-0            
e|---------------------            
                                   /  -2раза  
e|---------------------------     / вступление
 |---------------------------
 |---------------------------
 |------2-2-2-0-0-0---0-4-2-0
 |--000----------------------
e|---------------------------
Куплет
e|-----------------------------
 |-----------------------------
 |-------------------7xxx--9xxx
 |--7xxxxxxx--7xxxx--7xxx--9xxx
 |--7xxxxxxx--7xxxx--5xxx--7xxx
e|--5xxxxxxx--5xxxx------------
              сдесь Mark начинает петь 
Эта байда играется 2 раза затем опять Вступление 2раза.

Теперь партия Маrка на басу естественно!!
Куплет
e|----------------------  
 |--------00000-222222--   
 |--000000--------------   /2раза
 |----------------------  /  

Припев.
e|---------------------
 |--22-----------------
 |--22----77-----------3раза
 |--22-44-77-----------
 |-----44-55-----------
 |-----22--------------
   
 Продолжение выше написаново
e|--------------------------
 |--------------------------2
 |--4xxxxx7xxxx4xxx7xxx4xxx72 конец куплета.
 |--4xxxxx7xxxx4xxx7xxx4xxx72
 |--2xxxxx5xxxx2xxx5xxx2xxx5-
e|---------------------------
 Затем опять вступение. 2 раза
       опять куплет!
       опять припев! 
 Solo
e|--------------------
 |---2-2-2-5-2-2-3-3--
 |--- 2-2-2-2-2-2-2-2-
 |--------------------
 |--------------------
 |--------------------

припев.
вступление.


Hanging out behind the club on the weekends
Acting stupid, getting drunk with my best friends
I couldn´t wait for the summer and the Warped Tour
I remember that it´s the first time that I saw her there

She´s getting kicked out of school cause she´s failing
I´m kinda nervous, cause I think all her friends hate me
She´s the one, she´ll always be there
She took my hand and I made it I swear

Because I fell in love with the girl at the rock show
She said "what?" and I told her that I didn´t know
She´s so cool, better sneak me through her window
Everything´s better when she´s around
Can´t wait until her parents go out of town
I fell in love with the girl at the rock show

When we said we were gonna move to Vegas
I remember the look her mother gave us
17 without a purpose or direction
We don´t owe anyone a fuckin explanation

I fell in love with the girl at the rock show
She said "what?" and I told her that I didn´t know
She´s so cool, better sneak me through her window
Everything´s better when she´s around
Can´t wait until her parents go out of town
I fell in love with the girl at the rock show

Black and white picture of her on my wall
I waited for her call, she always kept me waiting
And if I ever got another chance I´d still ask her to dance
Because she kept me waiting

I fell in love with the girl at the rock show
She said "what?" and I told her that I didn´t know
She´s so cool, better sneak me through her window
Everything´s better when she´s around
Can´t wait until her parents go out of town
I fell in love with the girl at the rock show

with the girl at the rock show
with the girl at the rock show
(I´ll never forget tonight)
with the girl at the rock show......   

Всю БАЙДУ ПОДОБРАЛ PUTIN!!  голосуйте за ОтЛиЧнО!!


Текст, аккорды и табулатура для песни "The Rock Show", исполняет "Blink 182".
Используемые в песне аккорды можно найти в разделе Как брать аккорды. Аккорды для шестиструнной гитары. Другие песни можно найти на нашем сайте, воспользовавшись алфавитным указателем вверху страницы.


Слушать онлайн The Rock Show


Blink-182The Rock Show на Яндекс.Музыке


 
Ошибка в тексте? Выделите ошибку и нажмите Ctrl+Enter