Song: The Country Song
Band: Blink-182
Album: The Mark, Tom and Travis Show

       -Bass comes in first-   
    Then guitar comes in with this: 

        Intro:
e----------------------------------------------------------------|
B----------------------------------------------------------------|
G----------------------------------------------------------------|    1x
D------------------5---------------------------------------------|
A-------------3--------------------------------------------------|
E|-----3-----5-----7---------------------------------------------------------|

        Riff 1
e----------------------------------------------------------------|
B----------------------------------------------------------------|
G------------------5---------------------------------------------|
D------------------5---------------------------------------------| 1x
A----------3-----------------------------------------------------|
E|-----3----5----7-----------------------------------------------------------|

        Riff 2
e----------------------------------------------------------------|
B----------------------------------------------------------------|
G--------------5----------------5-------------5--------------5---|
D--------------5----5-5---------5-----5-5-----5-----5-5------5---|  4x
A--------------3----------------3-------------3--------------3---|
E|-----3-----5-----7------------3-3---------------3-3-----------3-3----------|

e----------------------------------------------------------------|
B----------------------------------------------------------------|
G----------------------------------------------------------------|
D----------------------------------------------------------------|
A----------------------------------------------------------------|
E|-----3-----5-----7---------------------------------------------------------| 
Repeat Riff 2


Текст, аккорды и табулатура для песни "The Country Song", исполняет "Blink 182".
Используемые в песне аккорды можно найти в разделе Как брать аккорды. Аккорды для шестиструнной гитары. Другие песни можно найти на нашем сайте, воспользовавшись алфавитным указателем вверху страницы.


 
Ошибка в тексте? Выделите ошибку и нажмите Ctrl+Enter