Album: Take Off Your Pants and Jacket
Transcribed by: Sergei ([email protected])
Tuning: Standart

Главная Мелодия:

E---------------------------------------------------------|
B---------------------------------------------------------|
G---------------------------------------------------------|
D|--0--7--0-0--4-0---0---7--0-0--4-0---0---4--0-0--5-0---0---2-2-4-2-0|
A|-5-5--------------4-4---------------2-2---------------0-0-----------|
E---------------------------------------------------------|  x2

Куплет:

E------------------------------------------------|
B|------3------3------3------3------3------3------3------3---|
G|------2------2------2------2------2------2------2------2---|
D|-0-0----0-0----0-0----0-0----------------------------------|
A------------------2-2----2-2----2-2----2-2------|
E------------------------------------------------|

E------------------------------------------------|
B|------3------3------3------3------5------5------2------2---|
G|------2------2------2------2------2------2------2------2---|
D------------------------------------------------|
A|-0-0----0-0----0-0----0-0----0-0----0-0----0-0----0-0------|
E------------------------------------------------|  x2

Припев:

E-----------------------------------------------------|
B-----------------------------------------------------|
G-----------------------------------------------------|
D|-5-5-5-5-5-5-5-5-5-5-5-5-5-5-5-5-4-4-4-4-4-4-4-4-4-4-4-4-4-4-4-4|
A|-5-5-5-5-5-5-5-5-5-5-5-5-5-5-5-5-5-5-5-5-5-5-5-5-5-5-5-5-5-5-5-5|
E|-5-5-5-5-5-5-5-5-5-5-5-5-5-5-5-5-5-5-5-5-5-5-5-5-5-5-5-5-5-5-5-5|   x4

Соло Пианино:

E---------|
B|-3-------------3---5|
G|-2-------------2---4|
D---------|
A---------|
E---------|  x4

По вопросам пишите на мыло.


Текст, аккорды и табулатура для песни "Stay Together For The Kids", исполняет "Blink 182".
Используемые в песне аккорды можно найти в разделе Как брать аккорды. Аккорды для шестиструнной гитары. Другие песни можно найти на нашем сайте, воспользовавшись алфавитным указателем вверху страницы.


Слушать онлайн Stay Together For The Kids


Blink-182Stay Together For The Kids на Яндекс.Музыке


 
Ошибка в тексте? Выделите ошибку и нажмите Ctrl+Enter