Intro                               
e-----------       
B-----------      
G-----------      
D-|-7-7-7-7-7-7-7---       
A--------0-       
E-----------  
     
Играем мелодию дважды

Мелодия (играется вместе с бас-гитарой) 
e---------------------------  
B--------------------------- 
G-|------9-------9------9--------9----  
D-|-7-7---7-7-7---------7---------7-
A--------------------------  
E-------9-9----10-10----  
                                                                                                                    
дальше идет бас с текстом:
Shut the fuck up she said
I´m going fucking deaf
you´re always too loud
everything´s too loud
Now that all my friends left
this place is fucking dead
I want to move out
when can we move out
this shit has got to stop
I´ll run away

Опять мелодию дважды,
а потом бас с текстом:
Get the fuck up she said
your life is meaningless
it´s going nowhere
you´re going nowhere
You´re just a fuck up she said
I´ll live alone instead
she said "you don´t care"
I know I don´t care

затем Комбинацию1 дважды с текстом:
I´ll never ask permission from you
Fuck off I´m not listening to you

Комбинация1:
"I’ll never…"
E----------------------------------------      
B----------------------------------------      
G--------------------14-14-14-14-14-      
D-|--5-5-5-5-5----5-5-5-5-5-14-14-14-14-14-      
A-|--5-5-5-5-5----5-5-5-5-5-12-12-12-12-12-
E-|--7-7-7-7-7--- -7-7-7-7-7---------------------

потом Комбинацию2 дважды с текстом:
I´m not coming home
I´m never going to come back home

Комбинация2:
"I’m not coming home" 
E------------------------------------------
B------------------------------------------
G------------------------------------------
D-|-9-9-9-9-9-9-9-9-12-12-12-12-12-12-12-12
A-|-9-9-9-9-9-9-9-9-12-12-12-12-12-12-12-12
E-|-7-7-7-7-7-7-7-7-10-10-10-10-10-10-10-10-

Комбинация3 четырежды с текстом:
I got too fucked up again
and passed out on the plane
tried to forget you
I can´t forget you
No sleep on this flight
I´ll think about the nights
we had to get through
how did we get through?

Комбинация3:
E--------------------------------------------
B--------------------------------------------
G--------------------------------------------
D-|--5-5-5-5-5-5-5-5--11-11-11-11-12-12-12-12
A-|--5-5-5-5-5-5-5-5--11-11-11-11-12-12-12-12
E-|--7-7-7-7-7-7-7-7----9--9--9--9--10-10-10-10

Комбинация1 дважды с текстом:
I´ll never ask permission from you
fuck off I´m not listening to you
Комбинация2 дважды с текстом:
I´m not coming home
I´m never going to come back home
I´ll run away
Сыграть Комбинацию4 шесть раз с текстом(2 раза без текста,
 а потом по строке на тройную комбинацию):
I think it´s time that I should leave
I think it´s time that I should leave
I think it´s time that I should leave
I think it´s time that I should leave

Комбинация4 
E---------------------------------------
B---------------------------------------
G-|-9-9-9-9-9-9-9-9--11-11-11-11-7-7-7-7--
D-|-9-9-9-9-9-9-9-9--11-11-11-11-7-7-7-7--
A-|-7-7-7-7-7-7-7-7---9--9--9--9---5-5-5-5--
E---------------------------------------

Играем Комбинацию5, за ней Комбинацию6
Комбинация5
E------------------------------------------
B------------------------------------------
G-|-14------13------7-----/18-----16------14-----
D-|---(x8)----(x4)----(x4)---(x8)----(x4)---(x4)-
A-|-12------11------9-----/16-----14------12-----
E------------------------------------------
Комбинация6
E------------------------------------------
B------------------------------------------
G-|-14------13------7-----/18-----16------19-----
D-|---(x8)----(x4)----(x4)---(x8)----(x4)---(x4)-
A-|-12------11------9-----/16-----14------17-----
E------------------------------------------
Комбинация1 дважды с текстом:
I´ll never ask permission from you
fuck off I´m not listening to you
Комбинация2 дважды с текстом::
I´m not coming home
I´m never going to come back home
I´ll run away
Мелодия с текстом:
I think it´s time for me to leave (I´ll run away)
I think it´s time for me to leave (I´ll run away)
I think it´s time for me to leave (I´ll run away)
I think it´s time for me to leave (I´ll run away)


Текст, аккорды и табулатура для песни "Shut Up", исполняет "Blink 182".
Используемые в песне аккорды можно найти в разделе Как брать аккорды. Аккорды для шестиструнной гитары. Другие песни можно найти на нашем сайте, воспользовавшись алфавитным указателем вверху страницы.


Слушать онлайн Shut Up


Blink-182Shut Up на Яндекс.Музыке


 
Ошибка в тексте? Выделите ошибку и нажмите Ctrl+Enter