Blink 182, The Rock Show.
 Tabbed by Eddy, [email protected]
  
(*) -Play Note 8 times

E|
B|--------------------
G|--------------------
D|------2---0---------
A|-0000--00--00-545---
E|--------------------
Intro

E|----------------------------------
B|----------------------------------
G|-----7--9-------------------------
D|7----7--9-------------------------
A|7----5--7-------------------------
E|5---------------------------------
Verse

E|---------------|
B|---------------|
G|---------77-66-|9*-7*-9*-7*-9*--7-6
D|-7-7-7-7-77-66-|9*-7*-9*-7*-9*--7-6
A|-7-7-7-7-55-44-|7*-5*-7*-5*-7*--5-4
E|-5-5-5-5-------|-------------------
Chours part 1     pm............. end

E|
B|-2---2---2---3---2---2---2---3------------
G|---2---2---2---2---2---2---2--------------
D|------------------------------------------
A|------------------------------------------
E|------------------------------------------
Interlude Part 1

E|-------------|--------------------
B|-------------|--------------------
G|-------7*-7*-|-------9*-7*--------
D|-4*-4*-7*-7*-|-7*-7*-9*-7*--------
A|-4-*4*-5*-5--|-7*-7*-7*-5*--------
E|-2*-2*-------|-5*-5*--------------
Interlude Part 2

Song Order
Intro 4x
Verse 2x
Intro 4x
Verse 0x
Chorus 3x +ending
Intro 4x
Verse 2x
Chorus 3x +ending
Interlude Part 1 and 2 1x
Chorus 3x +ending
Intro fade out  
:: Ultimate Guitar Archive :: 
http://www.ultimate-guitar.com 





Текст, аккорды и табулатура для песни "Rock Show (ver 9)", исполняет "Blink 182".
Используемые в песне аккорды можно найти в разделе Как брать аккорды. Аккорды для шестиструнной гитары. Другие песни можно найти на нашем сайте, воспользовавшись алфавитным указателем вверху страницы.


 
Ошибка в тексте? Выделите ошибку и нажмите Ctrl+Enter