Blink 182, The Rock Show.
 Tabbed by Ryan, [email protected]
  
Intro guitar1 4x
E|-----------------|
B|-----------------|
G|-----------------|
D|---2-0---0-------|
A|-0-----4---4p----|
E|-----------------|

Intro guitar 2 2x
E|-------------------------------------|
B|-------------------------------------|
G|------------------77777777-99999999--|
D|-7777777777777777-77777777-99999999--|
A|-7777777777777777-55555555-77777777--|
E|-5555555555555555--------------------|

E|------------------------|
B|------------------------|
G|------------------------|
D|-7xxxxxxxxxxxxxxxx------|
A|-7xxxxxxxxxxxxxxxx------|
E|-5xxxxxxxxxxxxxxxx------|

Verse 2x
E|----------------------------------------|
B|----------------------------------------|
G|-------------------7xxxxxxxx-9xxxxxxxx--|
D|-7xxxxxxxxxxxxxxxx-7xxxxxxxx-7xxxxxxxx--|
A|-7xxxxxxxxxxxxxxxx-5xxxxxxxx-7xxxxxxxx--|
E|-5xxxxxxxxxxxxxxxx----------------------|

guitar 1 and 2 Intro's 2x

Verse 2 is just the bass and drums

Chorus 3x
E|--------------|
B|--------------|
G|---------7-7--|
D|-777-4-4-7-7--|
A|-777-4-4-5-5--|
E|-555-2-2------|

Riff 1
E|---------------------------------------------------|
B|---------------------------------------------------|
G|-9xxxxxxxx7xxxxxxxx9xxxxxxxx7xxxxxxxx9xxxxxxxx-7-6-|
D|-9xxxxxxxx7xxxxxxxx9xxxxxxxx7xxxxxxxx7xxxxxxxx-7-6-|
A|-7xxxxxxxx5xxxxxxxx7xxxxxxxx5xxxxxxxx7xxxxxxxx-5-4-|
E|---------------------------------------------------|

guitar 1 and 2 intro's 2x

Verse 2x

Chorus 3x

Riff 1

Interlude guitar 1 8x
E|----------------|
B|-2---2---2---3--|
G|---2---2---2----|
D|----------------|
A|----------------|
E|----------------|

Interlude guitar 2
E|-----------------------------------
B|-----------------------------------
G|------------------7777777777777777-
D|-4444444444444444-7777777777777777-
A|-4444444444444444-5555555555555555-
E|-2222222222222222------------------

E|-----------------------------------|
B|-----------------------------------|
G|------------------9999999977777777-|
D|-7777777777777777-9999999977777777-|
A|-7777777777777777-7777777755555555-|
E|-5555555555555555------------------|

Chorus 3x

Riff 1

guitar 1 and 2 intro's 

Thats all there is to it. Listen to the song to get the timing down. 
:: Ultimate Guitar Archive :: 
http://www.ultimate-guitar.com 





Текст, аккорды и табулатура для песни "Rock Show (ver 8)", исполняет "Blink 182".
Используемые в песне аккорды можно найти в разделе Как брать аккорды. Аккорды для шестиструнной гитары. Другие песни можно найти на нашем сайте, воспользовавшись алфавитным указателем вверху страницы.


 
Ошибка в тексте? Выделите ошибку и нажмите Ctrl+Enter