I didn't know the whole text of this song so there are only a few parts.
But this tab must be correct. I spend weeks for that:.....Enjoy it!



Intro Riff (Gtr.1, x2)
  0:00 - 0:09
e|---------------------------------------------------------------|
B|---------------------------------------------------------------|
G|---------------------------------------------------------------|
D|-------2------0---------0----0------2-----0-------2------------|
A|-0-0-0---0-0----0-0-4-0---0--0--0-0---0-0---0-0-4---4-0--------|
E|---------------------------------------------------------------|

Rhy. Fig. 1 (Gtr.2, x2)
  0:00 - 0:09
e|-----------------------------------------------------------------|
B|-----------------------------------------------------------------|
G|-----------------------------------------------------------------|
D|---------------------------------7-7-7-7-7-7-7-7-9-9-9-9-9-9-9-9-|
A|-7-7-7-7-7-7-7-7-7-7-7-7-7-7-7-7-5-5-5-5-5-5-5-5-7-7-7-7-7-7-7-7-|
E|-5-5-5-5-5-5-5-5-5-5-5-5-5-5-5-5---------------------------------|

Rhy. Fig. 2 (Gtr.1, x1)
  0:09 - 0:12
e|----------------------------------|
B|----------------------------------|
G|----------------------------------|
D|----------------------------------|
A|-7-7-7-7-7-7-7-7-7-7-7-7-7-7-7-7--|
E|-5-5-5-5-5-5-5-5-5-5-5-5-5-5-5-5--|
pm.................................

Verse 1 (Gtr.1)
  0:12 - 0:22
1.Hangin' out behind the...weekend..actin' stupid..drunk with my...
2.Couldn't wait for....Warped tour..I remember....first time that I..
e|-----------------------------------------------------------------|
B|-----------------------------------------------------------------|
G|-----------------------------------------------------------------|
D|---------------------------------7-7-7-7-7-7-7-7-9-9-9-9-9-9-9-9-|
A|-7-7-7-7-7-7-7-7-7-7-7-7-7-7-7-7-5-5-5-5-5-5-5-5-7-7-7-7-7-7-7-7-|
E|-5-5-5-5-5-5-5-5-5-5-5-5-5-5-5-5---------------------------------|
     .............................   .............   ..............

Intro Riff (Gtr.1, x2)
  0:22 - 0:30
e|---------------------------------------------------------------|
B|---------------------------------------------------------------|
G|---------------------------------------------------------------|
D|-------2------0---------0----0------2-----0-------2------------|
A|-0-0-0---0-0----0-0-4-0---0--0--0-0---0-0---0-0-4---4-0--------|
E|---------------------------------------------------------------|

Rhy. Fig. 1 (Gtr.2, x2)
  0:22 - 0:30
e|-----------------------------------------------------------------|
B|-----------------------------------------------------------------|
G|-----------------------------------------------------------------|
D|---------------------------------7-7-7-7-7-7-7-7-9-9-9-9-9-9-9-9-|
A|-7-7-7-7-7-7-7-7-7-7-7-7-7-7-7-7-5-5-5-5-5-5-5-5-7-7-7-7-7-7-7-7-|
E|-5-5-5-5-5-5-5-5-5-5-5-5-5-5-5-5---------------------------------|

Verse 2 (Gtr.1)
  0:30 - 0:38
1.She's gettin kicked outta school cos she's failing.......
2.I'm kinda nervous cos I think all her friends hate me....
3.She's the one she'll always be there, she took my hand at that minute I swear 
e|-----------------------------------------------------------------|
B|-----------------------------------------------------------------|
G|-----------------------------------------------------------------|
D|-----------------------------------------------------------------|
A|-7---------------------------------------------------------------|
E|-5---------------------------------------------------------------|
Hold A5 chord. Only play it once at the beginning of verse 2 and
let fade.

Chorus Part A (Gtr.1)
  0:38 - 0:46
1.I...in love with the girl at the rock show....
2.She...what...and I told her that I didn't know...
3.She..cool gonna sneak in thru the window....
e|------------------------------------------|
B|------------------------------------------|
G|----------------------------------7---7---|
D|--7--7--7--X--X--4----4---X---X---7---7---|
A|--7--7--7--X--X--4----4---X---X---5---5---|
E|--5--5--5--X--X--2----2---X---X-----------|

Chorus Part B (Gtr.1)
  0:46 - 0:54
Everything's      better when      she's             a - round.....    
e|-------------------------------------------------------------------|
B|-------------------------------------------------------------------|
G|-------------------------------------------------------------------|
D|-----------------7-7-7-7-7-7-7-7-9-9-9-9-9-9-9-9-9-7-7-7-7-7-7-7-7-|
A|-2-2-2-2-2-2-2-2-5-5-5-5-5-5-5-5-7-7-7-7-7-7-7-7-7-5-5-5-5-5-5-5-5-|
E|-0-0-0-0-0-0-0-0---------------------------------------------------|
pm...................................................................

Can't wait til her parents go       out of        town          
e|-----------------------------------------------------------------|
B|-----------------------------------------------------------------|
G|-----------------------------------------------------------------|
D|-9-9-9-9-9-9-9--7-7-7-7-7-7-7-7-9-9-9-9-9-9-9-9-7-7-7-7-7-7-7-7--|
A|-7-7-7-7-7-7-7--5-5-5-5-5-5-5-5-7-7-7-7-7-7-7-7-5-5-5-5-5-5-5-5--|
E|-----------------------------------------------------------------|
pm.................................................................
I fell in love with the girl at the rock show
e|--------------------------------------|
B|--------------------------------------|
G|--------------------------------------|
D|-9-9-----9-9-----9-9---7----X-X-----7-|
A|-7-7-----7-7-----7-7---5----X-X-----4-|
E|------0------0------------------------|
......    ....    ....

Intro Riff (Gtr.1, x2)
  0:54 - 1:04
e|---------------------------------------------------------------|
B|---------------------------------------------------------------|
G|---------------------------------------------------------------|
D|-------2------0---------0----0------2-----0-------2------------|
A|-0-0-0---0-0----0-0-4-0---0--0--0-0---0-0---0-0-4---4-0--------|
E|---------------------------------------------------------------|

Rhy. Fig. 1 (Gtr.2, x2)
  0:54 - 1:04
e|-----------------------------------------------------------------|
B|-----------------------------------------------------------------|
G|-----------------------------------------------------------------|
D|---------------------------------7-7-7-7-7-7-7-7-9-9-9-9-9-9-9-9-|
A|-7-7-7-7-7-7-7-7-7-7-7-7-7-7-7-7-5-5-5-5-5-5-5-5-7-7-7-7-7-7-7-7-|
E|-5-5-5-5-5-5-5-5-5-5-5-5-5-5-5-5---------------------------------|

Verse 3 (Gtr.1)
  1:04 - 1:14
1.When we said..gonna.....to Vegas..remember the look....gave us..
2.Seventeen without a.....direction..we don't....fucking explanation...
e|-----------------------------------------------------------------|
B|-----------------------------------------------------------------|
G|-----------------------------------------------------------------|
D|---------------------------------7-7-7-7-7-7-7-7-9-9-9-9-9-9-9-9-|
A|-7-7-7-7-7-7-7-7-7-7-7-7-7-7-7-7-5-5-5-5-5-5-5-5-7-7-7-7-7-7-7-7-|
E|-5-5-5-5-5-5-5-5-5-5-5-5-5-5-5-5---------------------------------|
     .............................   .............   ..............

Chorus Part A (Gtr.1)
  1:14 - 1:21
1.I...in love with the girl at the rock show....
2.She...what...and I told her that I didn't know...
3.She..cool gonna sneak in thru the window....
e|------------------------------------------|
B|------------------------------------------|
G|----------------------------------7---7---|
D|--7--7--7--X--X--4----4---X---X---7---7---|
A|--7--7--7--X--X--4----4---X---X---5---5---|
E|--5--5--5--X--X--2----2---X---X-----------|

Chorus Part B (Gtr.1)
  1:21 - 1:28
Everything's      better when      she's             a - round.....    
e|-------------------------------------------------------------------|
B|-------------------------------------------------------------------|
G|-------------------------------------------------------------------|
D|-----------------7-7-7-7-7-7-7-7-9-9-9-9-9-9-9-9-9-7-7-7-7-7-7-7-7-|
A|-2-2-2-2-2-2-2-2-5-5-5-5-5-5-5-5-7-7-7-7-7-7-7-7-7-5-5-5-5-5-5-5-5-|
E|-0-0-0-0-0-0-0-0---------------------------------------------------|
pm...................................................................

Can't wait til her parents go       out of        town          
e|-----------------------------------------------------------------|
B|-----------------------------------------------------------------|
G|-----------------------------------------------------------------|
D|-9-9-9-9-9-9-9--7-7-7-7-7-7-7-7-9-9-9-9-9-9-9-9-7-7-7-7-7-7-7-7--|
A|-7-7-7-7-7-7-7--5-5-5-5-5-5-5-5-7-7-7-7-7-7-7-7-5-5-5-5-5-5-5-5--|
E|-----------------------------------------------------------------|
pm.................................................................
I fell in love with the girl at the rock show
e|--------------------------------------|
B|--------------------------------------|
G|--------------------------------------|
D|-9-9-----9-9-----9-9---7----X-X-----7-|
A|-7-7-----7-7-----7-7---5----X-X-----4-|
E|------0------0------------------------|
......    ....    ....

Interlude Part A (Gtr.1)
  1:28 - 1:38
Black and white picture of her on my wall, I waited for her call
e|--------------------------------------------------------------------|
B|-2----------2---------3--------2--------------2----------3-------2--|
G|----2~~~---------2---------2-------2~~~~----------2-----------2----2|
D|--------------------------------------------------------------------|
A|--------------------------------------------------------------------|
E|--------------------------------------------------------------------|

..........She always kept me waiting
e|-----------------------------------------|
B|-2-----3-------2----------2-------3------|
G|----2-----2--------2~~~------2--------2--|
D|-----------------------------------------|
A|-----------------------------------------|
E|-----------------------------------------|

Interlude Part B (Gtr.1)
  1:39 - 1:48
      And if I ever got an  -  oth  -  er chance,  I'd still ask
e|-----------------------------------2-2-2-2-2-2-2-2-2-2-2-2-2-2-2-2-|
B|-----------------------------------2-2-2-2-2-2-2-2-2-2-2-2-2-2-2-2-|
G|-----------------------------------2-2-2-2-2-2-2-2-2-2-2-2-2-2-2-2-|
D|-4-4-4-4-4-4-4-4-4-4-4-4-4-4-4-4-4-0-0-0-0-0-0-0-0-0-0-0-0-0-0-0-0-|
A|-4-4-4-4-4-4-4-4-4-4-4-4-4-4-4-4-4---------------------------------|
E|-2-2-2-2-2-2-2-2-2-2-2-2-2-2-2-2-2---------------------------------|

.......her to dance...she always kept me waiting..I..
e|----------------------------------------------------|
B|----------------------------------------------------|
G|-2-2-2-2-2-2-2-2-------------------7-7-7-7-7-7-7-7--|
D|-2-2-2-2-2-2-2-2--2-2-2-2-2-2-2-2--7-7-7-7-7-7-7-7--|
A|-0-0-0-0-0-0-0-0--2-2-2-2-2-2-2-2--5-5-5-5-5-5-5-5--|
E|------------------0-0-0-0-0-0-0-0-------------------|

Chorus Part A (Gtr.1)
  1:49 - 1:55
1.I...in love with the girl at the rock show....
2.She...what...and I told her that I didn't know...
3.She..cool gonna sneak in thru the window....
e|------------------------------------------|
B|------------------------------------------|
G|----------------------------------7---7---|
D|--7--7--7--X--X--4----4---X---X---7---7---|
A|--7--7--7--X--X--4----4---X---X---5---5---|
E|--5--5--5--X--X--2----2---X---X-----------|

Chorus Part B (Gtr.1)
  1:55 - 2:02
Everything's      better when      she's             a - round.....    
e|-------------------------------------------------------------------|
B|-------------------------------------------------------------------|
G|-------------------------------------------------------------------|
D|-----------------7-7-7-7-7-7-7-7-9-9-9-9-9-9-9-9-9-7-7-7-7-7-7-7-7-|
A|-2-2-2-2-2-2-2-2-5-5-5-5-5-5-5-5-7-7-7-7-7-7-7-7-7-5-5-5-5-5-5-5-5-|
E|-0-0-0-0-0-0-0-0---------------------------------------------------|
pm...................................................................

Can't wait til her parents go       out of        town          
e|-----------------------------------------------------------------|
B|-----------------------------------------------------------------|
G|-----------------------------------------------------------------|
D|-9-9-9-9-9-9-9--7-7-7-7-7-7-7-7-9-9-9-9-9-9-9-9-7-7-7-7-7-7-7-7--|
A|-7-7-7-7-7-7-7--5-5-5-5-5-5-5-5-7-7-7-7-7-7-7-7-5-5-5-5-5-5-5-5--|
E|-----------------------------------------------------------------|
pm.................................................................
I fell in love with the girl at the rock show
e|--------------------------------------|
B|--------------------------------------|
G|--------------------------------------|
D|-9-9-----9-9-----9-9---7----X-X-----7-|
A|-7-7-----7-7-----7-7---5----X-X-----4-|
E|------0------0------------------------|
......    ....    ....

Intro Riff (Gtr.1, til fade)
  2:02 - 2:36
e|---------------------------------------------------------------|
B|---------------------------------------------------------------|
G|---------------------------------------------------------------|
D|-------2------0---------0----0------2-----0-------2------------|
A|-0-0-0---0-0----0-0-4-0---0--0--0-0---0-0---0-0-4---4-0--------|
E|---------------------------------------------------------------|

Rhy. Fig. 1 (Gtr.2, til fade)
  2:02 - 2:36
e|-----------------------------------------------------------------|
B|-----------------------------------------------------------------|
G|-----------------------------------------------------------------|
D|---------------------------------7-7-7-7-7-7-7-7-9-9-9-9-9-9-9-9-|
A|-7-7-7-7-7-7-7-7-7-7-7-7-7-7-7-7-5-5-5-5-5-5-5-5-7-7-7-7-7-7-7-7-|
E|-5-5-5-5-5-5-5-5-5-5-5-5-5-5-5-5---------------------------------|


Текст, аккорды и табулатура для песни "Rock Show (ver 13)", исполняет "Blink 182".
Используемые в песне аккорды можно найти в разделе Как брать аккорды. Аккорды для шестиструнной гитары. Другие песни можно найти на нашем сайте, воспользовавшись алфавитным указателем вверху страницы.


 
Ошибка в тексте? Выделите ошибку и нажмите Ctrl+Enter